  0
SECTION
  2
HEADER
  9
$ACADVER
  1
AC1009
  9
$EXTMIN
 10
0.0
 20
0.0
 30
0.0
  9
$EXTMAX
 10
1000.0
 20
1000.0
 30
0.0
  9
$FILLMODE
 70
 0
  9
$SPLFRAME
 70
 1
  0
ENDSEC
  0
SECTION
  2
TABLES
  0
TABLE
  2
LAYER
 70
1
  0
LAYER
  2
0
 70
     0
 62
     7
  6
CONTINUOUS
  0
ENDTAB
  0
ENDSEC
  0
SECTION
  2
ENTITIES
  0
LINE
  8
0
 62
     0
 10
305.846
 20
138.373
 30
0.0
 11
306.159
 21
138.362
 31
0.0
  0
LINE
  8
0
 62
     0
 10
306.159
 20
138.362
 30
0.0
 11
306.47
 21
138.326
 31
0.0
  0
LINE
  8
0
 62
     0
 10
306.47
 20
138.326
 30
0.0
 11
306.779
 21
138.264
 31
0.0
  0
LINE
  8
0
 62
     0
 10
306.779
 20
138.264
 30
0.0
 11
307.082
 21
138.18
 31
0.0
  0
LINE
  8
0
 62
     0
 10
307.082
 20
138.18
 30
0.0
 11
307.376
 21
138.07
 31
0.0
  0
LINE
  8
0
 62
     0
 10
307.376
 20
138.07
 30
0.0
 11
307.661
 21
137.94
 31
0.0
  0
LINE
  8
0
 62
     0
 10
307.661
 20
137.94
 30
0.0
 11
307.935
 21
137.784
 31
0.0
  0
LINE
  8
0
 62
     0
 10
307.935
 20
137.784
 30
0.0
 11
308.197
 21
137.611
 31
0.0
  0
LINE
  8
0
 62
     0
 10
308.197
 20
137.611
 30
0.0
 11
308.442
 21
137.416
 31
0.0
  0
LINE
  8
0
 62
     0
 10
308.442
 20
137.416
 30
0.0
 11
308.673
 21
137.202
 31
0.0
  0
LINE
  8
0
 62
     0
 10
308.673
 20
137.202
 30
0.0
 11
308.887
 21
136.973
 31
0.0
  0
LINE
  8
0
 62
     0
 10
308.887
 20
136.973
 30
0.0
 11
309.082
 21
136.726
 31
0.0
  0
LINE
  8
0
 62
     0
 10
309.082
 20
136.726
 30
0.0
 11
309.255
 21
136.463
 31
0.0
  0
LINE
  8
0
 62
     0
 10
309.255
 20
136.463
 30
0.0
 11
309.409
 21
136.19
 31
0.0
  0
LINE
  8
0
 62
     0
 10
309.409
 20
136.19
 30
0.0
 11
309.541
 21
135.905
 31
0.0
  0
LINE
  8
0
 62
     0
 10
309.541
 20
135.905
 30
0.0
 11
309.649
 21
135.61
 31
0.0
  0
LINE
  8
0
 62
     0
 10
309.649
 20
135.61
 30
0.0
 11
309.735
 21
135.308
 31
0.0
  0
LINE
  8
0
 62
     0
 10
309.735
 20
135.308
 30
0.0
 11
309.795
 21
135.001
 31
0.0
  0
LINE
  8
0
 62
     0
 10
309.795
 20
135.001
 30
0.0
 11
309.833
 21
134.687
 31
0.0
  0
LINE
  8
0
 62
     0
 10
309.833
 20
134.687
 30
0.0
 11
309.846
 21
134.375
 31
0.0
  0
LINE
  8
0
 62
     0
 10
309.846
 20
134.375
 30
0.0
 11
309.846
 21
4.07211
 31
0.0
  0
LINE
  8
0
 62
     0
 10
309.846
 20
4.07211
 30
0.0
 11
309.833
 21
3.75931
 31
0.0
  0
LINE
  8
0
 62
     0
 10
309.833
 20
3.75931
 30
0.0
 11
309.795
 21
3.44923
 31
0.0
  0
LINE
  8
0
 62
     0
 10
309.795
 20
3.44923
 30
0.0
 11
309.735
 21
3.14055
 31
0.0
  0
LINE
  8
0
 62
     0
 10
309.735
 20
3.14055
 30
0.0
 11
309.649
 21
2.836
 31
0.0
  0
LINE
  8
0
 62
     0
 10
309.649
 20
2.836
 30
0.0
 11
309.541
 21
2.54248
 31
0.0
  0
LINE
  8
0
 62
     0
 10
309.541
 20
2.54248
 30
0.0
 11
309.409
 21
2.2586
 31
0.0
  0
LINE
  8
0
 62
     0
 10
309.409
 20
2.2586
 30
0.0
 11
309.255
 21
1.983
 31
0.0
  0
LINE
  8
0
 62
     0
 10
309.255
 20
1.983
 30
0.0
 11
309.082
 21
1.72117
 31
0.0
  0
LINE
  8
0
 62
     0
 10
309.082
 20
1.72117
 30
0.0
 11
308.887
 21
1.47726
 31
0.0
  0
LINE
  8
0
 62
     0
 10
308.887
 20
1.47726
 30
0.0
 11
308.673
 21
1.24575
 31
0.0
  0
LINE
  8
0
 62
     0
 10
308.673
 20
1.24575
 30
0.0
 11
308.442
 21
1.03077
 31
0.0
  0
LINE
  8
0
 62
     0
 10
308.442
 20
1.03077
 30
0.0
 11
308.197
 21
0.836468
 31
0.0
  0
LINE
  8
0
 62
     0
 10
308.197
 20
0.836468
 30
0.0
 11
307.935
 21
0.662838
 31
0.0
  0
LINE
  8
0
 62
     0
 10
307.935
 20
0.662838
 30
0.0
 11
307.661
 21
0.509873
 31
0.0
  0
LINE
  8
0
 62
     0
 10
307.661
 20
0.509873
 30
0.0
 11
307.376
 21
0.377582
 31
0.0
  0
LINE
  8
0
 62
     0
 10
307.376
 20
0.377582
 30
0.0
 11
307.082
 21
0.270095
 31
0.0
  0
LINE
  8
0
 62
     0
 10
307.082
 20
0.270095
 30
0.0
 11
306.779
 21
0.184657
 31
0.0
  0
LINE
  8
0
 62
     0
 10
306.779
 20
0.184657
 30
0.0
 11
306.47
 21
0.124024
 31
0.0
  0
LINE
  8
0
 62
     0
 10
306.47
 20
0.124024
 30
0.0
 11
306.159
 21
0.0854385
 31
0.0
  0
LINE
  8
0
 62
     0
 10
306.159
 20
0.0854385
 30
0.0
 11
305.846
 21
0.0730359
 31
0.0
  0
LINE
  8
0
 62
     0
 10
305.846
 20
0.0730359
 30
0.0
 11
4.09416
 21
0.071658
 31
0.0
  0
LINE
  8
0
 62
     0
 10
4.09416
 20
0.071658
 30
0.0
 11
3.78135
 21
0.0854385
 31
0.0
  0
LINE
  8
0
 62
     0
 10
3.78135
 20
0.0854385
 30
0.0
 11
3.46852
 21
0.124024
 31
0.0
  0
LINE
  8
0
 62
     0
 10
3.46852
 20
0.124024
 30
0.0
 11
3.16122
 21
0.184657
 31
0.0
  0
LINE
  8
0
 62
     0
 10
3.16122
 20
0.184657
 30
0.0
 11
2.85805
 21
0.270095
 31
0.0
  0
LINE
  8
0
 62
     0
 10
2.85805
 20
0.270095
 30
0.0
 11
2.56315
 21
0.377582
 31
0.0
  0
LINE
  8
0
 62
     0
 10
2.56315
 20
0.377582
 30
0.0
 11
2.27928
 21
0.509873
 31
0.0
  0
LINE
  8
0
 62
     0
 10
2.27928
 20
0.509873
 30
0.0
 11
2.00504
 21
0.662838
 31
0.0
  0
LINE
  8
0
 62
     0
 10
2.00504
 20
0.662838
 30
0.0
 11
1.74322
 21
0.836468
 31
0.0
  0
LINE
  8
0
 62
     0
 10
1.74322
 20
0.836468
 30
0.0
 11
1.49655
 21
1.03077
 31
0.0
  0
LINE
  8
0
 62
     0
 10
1.49655
 20
1.03077
 30
0.0
 11
1.26642
 21
1.24575
 31
0.0
  0
LINE
  8
0
 62
     0
 10
1.26642
 20
1.24575
 30
0.0
 11
1.05282
 21
1.47726
 31
0.0
  0
LINE
  8
0
 62
     0
 10
1.05282
 20
1.47726
 30
0.0
 11
0.857141
 21
1.72117
 31
0.0
  0
LINE
  8
0
 62
     0
 10
0.857141
 20
1.72117
 30
0.0
 11
0.683507
 21
1.983
 31
0.0
  0
LINE
  8
0
 62
     0
 10
0.683507
 20
1.983
 30
0.0
 11
0.529167
 21
2.2586
 31
0.0
  0
LINE
  8
0
 62
     0
 10
0.529167
 20
2.2586
 30
0.0
 11
0.398254
 21
2.54248
 31
0.0
  0
LINE
  8
0
 62
     0
 10
0.398254
 20
2.54248
 30
0.0
 11
0.289388
 21
2.836
 31
0.0
  0
LINE
  8
0
 62
     0
 10
0.289388
 20
2.836
 30
0.0
 11
0.205328
 21
3.14055
 31
0.0
  0
LINE
  8
0
 62
     0
 10
0.205328
 20
3.14055
 30
0.0
 11
0.143316
 21
3.44923
 31
0.0
  0
LINE
  8
0
 62
     0
 10
0.143316
 20
3.44923
 30
0.0
 11
0.106109
 21
3.75931
 31
0.0
  0
LINE
  8
0
 62
     0
 10
0.106109
 20
3.75931
 30
0.0
 11
0.0937066
 21
4.07211
 31
0.0
  0
LINE
  8
0
 62
     0
 10
0.0937066
 20
4.07211
 30
0.0
 11
0.0950846
 21
134.375
 31
0.0
  0
LINE
  8
0
 62
     0
 10
0.0950846
 20
134.375
 30
0.0
 11
0.106109
 21
134.687
 31
0.0
  0
LINE
  8
0
 62
     0
 10
0.106109
 20
134.687
 30
0.0
 11
0.143316
 21
135.001
 31
0.0
  0
LINE
  8
0
 62
     0
 10
0.143316
 20
135.001
 30
0.0
 11
0.205328
 21
135.308
 31
0.0
  0
LINE
  8
0
 62
     0
 10
0.205328
 20
135.308
 30
0.0
 11
0.289388
 21
135.61
 31
0.0
  0
LINE
  8
0
 62
     0
 10
0.289388
 20
135.61
 30
0.0
 11
0.398254
 21
135.905
 31
0.0
  0
LINE
  8
0
 62
     0
 10
0.398254
 20
135.905
 30
0.0
 11
0.529167
 21
136.19
 31
0.0
  0
LINE
  8
0
 62
     0
 10
0.529167
 20
136.19
 30
0.0
 11
0.683507
 21
136.463
 31
0.0
  0
LINE
  8
0
 62
     0
 10
0.683507
 20
136.463
 30
0.0
 11
0.857141
 21
136.726
 31
0.0
  0
LINE
  8
0
 62
     0
 10
0.857141
 20
136.726
 30
0.0
 11
1.05282
 21
136.973
 31
0.0
  0
LINE
  8
0
 62
     0
 10
1.05282
 20
136.973
 30
0.0
 11
1.26642
 21
137.202
 31
0.0
  0
LINE
  8
0
 62
     0
 10
1.26642
 20
137.202
 30
0.0
 11
1.49655
 21
137.416
 31
0.0
  0
LINE
  8
0
 62
     0
 10
1.49655
 20
137.416
 30
0.0
 11
1.74322
 21
137.611
 31
0.0
  0
LINE
  8
0
 62
     0
 10
1.74322
 20
137.611
 30
0.0
 11
2.00504
 21
137.784
 31
0.0
  0
LINE
  8
0
 62
     0
 10
2.00504
 20
137.784
 30
0.0
 11
2.27928
 21
137.94
 31
0.0
  0
LINE
  8
0
 62
     0
 10
2.27928
 20
137.94
 30
0.0
 11
2.56315
 21
138.07
 31
0.0
  0
LINE
  8
0
 62
     0
 10
2.56315
 20
138.07
 30
0.0
 11
2.85805
 21
138.18
 31
0.0
  0
LINE
  8
0
 62
     0
 10
2.85805
 20
138.18
 30
0.0
 11
3.16122
 21
138.264
 31
0.0
  0
LINE
  8
0
 62
     0
 10
3.16122
 20
138.264
 30
0.0
 11
3.46852
 21
138.326
 31
0.0
  0
LINE
  8
0
 62
     0
 10
3.46852
 20
138.326
 30
0.0
 11
3.78135
 21
138.362
 31
0.0
  0
LINE
  8
0
 62
     0
 10
3.78135
 20
138.362
 30
0.0
 11
4.09416
 21
138.374
 31
0.0
  0
LINE
  8
0
 62
     0
 10
4.09416
 20
138.374
 30
0.0
 11
305.846
 21
138.373
 31
0.0
  0
LINE
  8
0
 62
     0
 10
303.35
 20
7.59576
 30
0.0
 11
302.905
 21
7.36836
 31
0.0
  0
LINE
  8
0
 62
     0
 10
302.905
 20
7.36836
 30
0.0
 11
302.551
 21
7.01283
 31
0.0
  0
LINE
  8
0
 62
     0
 10
302.551
 20
7.01283
 30
0.0
 11
302.323
 21
6.56773
 31
0.0
  0
LINE
  8
0
 62
     0
 10
302.323
 20
6.56773
 30
0.0
 11
302.245
 21
6.07162
 31
0.0
  0
LINE
  8
0
 62
     0
 10
302.245
 20
6.07162
 30
0.0
 11
302.323
 21
5.57967
 31
0.0
  0
LINE
  8
0
 62
     0
 10
302.323
 20
5.57967
 30
0.0
 11
302.551
 21
5.13182
 31
0.0
  0
LINE
  8
0
 62
     0
 10
302.551
 20
5.13182
 30
0.0
 11
302.905
 21
4.77767
 31
0.0
  0
LINE
  8
0
 62
     0
 10
302.905
 20
4.77767
 30
0.0
 11
303.35
 21
4.55306
 31
0.0
  0
LINE
  8
0
 62
     0
 10
303.35
 20
4.55306
 30
0.0
 11
303.846
 21
4.47449
 31
0.0
  0
LINE
  8
0
 62
     0
 10
303.846
 20
4.47449
 30
0.0
 11
304.34
 21
4.55306
 31
0.0
  0
LINE
  8
0
 62
     0
 10
304.34
 20
4.55306
 30
0.0
 11
304.786
 21
4.77767
 31
0.0
  0
LINE
  8
0
 62
     0
 10
304.786
 20
4.77767
 30
0.0
 11
305.14
 21
5.13182
 31
0.0
  0
LINE
  8
0
 62
     0
 10
305.14
 20
5.13182
 30
0.0
 11
305.366
 21
5.57967
 31
0.0
  0
LINE
  8
0
 62
     0
 10
305.366
 20
5.57967
 30
0.0
 11
305.446
 21
6.07162
 31
0.0
  0
LINE
  8
0
 62
     0
 10
305.446
 20
6.07162
 30
0.0
 11
305.366
 21
6.56773
 31
0.0
  0
LINE
  8
0
 62
     0
 10
305.366
 20
6.56773
 30
0.0
 11
305.14
 21
7.01283
 31
0.0
  0
LINE
  8
0
 62
     0
 10
305.14
 20
7.01283
 30
0.0
 11
304.786
 21
7.36836
 31
0.0
  0
LINE
  8
0
 62
     0
 10
304.786
 20
7.36836
 30
0.0
 11
304.34
 21
7.59576
 31
0.0
  0
LINE
  8
0
 62
     0
 10
304.34
 20
7.59576
 30
0.0
 11
303.846
 21
7.67292
 31
0.0
  0
LINE
  8
0
 62
     0
 10
303.846
 20
7.67292
 30
0.0
 11
303.35
 21
7.59576
 31
0.0
  0
LINE
  8
0
 62
     0
 10
154.475
 20
7.59576
 30
0.0
 11
154.03
 21
7.36836
 31
0.0
  0
LINE
  8
0
 62
     0
 10
154.03
 20
7.36836
 30
0.0
 11
153.676
 21
7.01283
 31
0.0
  0
LINE
  8
0
 62
     0
 10
153.676
 20
7.01283
 30
0.0
 11
153.447
 21
6.56773
 31
0.0
  0
LINE
  8
0
 62
     0
 10
153.447
 20
6.56773
 30
0.0
 11
153.37
 21
6.07162
 31
0.0
  0
LINE
  8
0
 62
     0
 10
153.37
 20
6.07162
 30
0.0
 11
153.447
 21
5.57967
 31
0.0
  0
LINE
  8
0
 62
     0
 10
153.447
 20
5.57967
 30
0.0
 11
153.676
 21
5.13182
 31
0.0
  0
LINE
  8
0
 62
     0
 10
153.676
 20
5.13182
 30
0.0
 11
154.03
 21
4.77767
 31
0.0
  0
LINE
  8
0
 62
     0
 10
154.03
 20
4.77767
 30
0.0
 11
154.475
 21
4.55306
 31
0.0
  0
LINE
  8
0
 62
     0
 10
154.475
 20
4.55306
 30
0.0
 11
154.97
 21
4.47449
 31
0.0
  0
LINE
  8
0
 62
     0
 10
154.97
 20
4.47449
 30
0.0
 11
155.464
 21
4.55306
 31
0.0
  0
LINE
  8
0
 62
     0
 10
155.464
 20
4.55306
 30
0.0
 11
155.91
 21
4.77767
 31
0.0
  0
LINE
  8
0
 62
     0
 10
155.91
 20
4.77767
 30
0.0
 11
156.264
 21
5.13182
 31
0.0
  0
LINE
  8
0
 62
     0
 10
156.264
 20
5.13182
 30
0.0
 11
156.492
 21
5.57967
 31
0.0
  0
LINE
  8
0
 62
     0
 10
156.492
 20
5.57967
 30
0.0
 11
156.57
 21
6.07162
 31
0.0
  0
LINE
  8
0
 62
     0
 10
156.57
 20
6.07162
 30
0.0
 11
156.492
 21
6.56773
 31
0.0
  0
LINE
  8
0
 62
     0
 10
156.492
 20
6.56773
 30
0.0
 11
156.264
 21
7.01283
 31
0.0
  0
LINE
  8
0
 62
     0
 10
156.264
 20
7.01283
 30
0.0
 11
155.91
 21
7.36836
 31
0.0
  0
LINE
  8
0
 62
     0
 10
155.91
 20
7.36836
 30
0.0
 11
155.464
 21
7.59576
 31
0.0
  0
LINE
  8
0
 62
     0
 10
155.464
 20
7.59576
 30
0.0
 11
154.97
 21
7.67292
 31
0.0
  0
LINE
  8
0
 62
     0
 10
154.97
 20
7.67292
 30
0.0
 11
154.475
 21
7.59576
 31
0.0
  0
LINE
  8
0
 62
     0
 10
5.60035
 20
7.59576
 30
0.0
 11
5.15387
 21
7.36836
 31
0.0
  0
LINE
  8
0
 62
     0
 10
5.15387
 20
7.36836
 30
0.0
 11
4.79972
 21
7.01283
 31
0.0
  0
LINE
  8
0
 62
     0
 10
4.79972
 20
7.01283
 30
0.0
 11
4.57232
 21
6.56773
 31
0.0
  0
LINE
  8
0
 62
     0
 10
4.57232
 20
6.56773
 30
0.0
 11
4.49516
 21
6.07162
 31
0.0
  0
LINE
  8
0
 62
     0
 10
4.49516
 20
6.07162
 30
0.0
 11
4.57232
 21
5.57967
 31
0.0
  0
LINE
  8
0
 62
     0
 10
4.57232
 20
5.57967
 30
0.0
 11
4.79972
 21
5.13182
 31
0.0
  0
LINE
  8
0
 62
     0
 10
4.79972
 20
5.13182
 30
0.0
 11
5.15387
 21
4.77767
 31
0.0
  0
LINE
  8
0
 62
     0
 10
5.15387
 20
4.77767
 30
0.0
 11
5.60035
 21
4.55306
 31
0.0
  0
LINE
  8
0
 62
     0
 10
5.60035
 20
4.55306
 30
0.0
 11
6.09505
 21
4.47449
 31
0.0
  0
LINE
  8
0
 62
     0
 10
6.09505
 20
4.47449
 30
0.0
 11
6.58841
 21
4.55306
 31
0.0
  0
LINE
  8
0
 62
     0
 10
6.58841
 20
4.55306
 30
0.0
 11
7.03488
 21
4.77767
 31
0.0
  0
LINE
  8
0
 62
     0
 10
7.03488
 20
4.77767
 30
0.0
 11
7.38904
 21
5.13182
 31
0.0
  0
LINE
  8
0
 62
     0
 10
7.38904
 20
5.13182
 30
0.0
 11
7.6164
 21
5.57967
 31
0.0
  0
LINE
  8
0
 62
     0
 10
7.6164
 20
5.57967
 30
0.0
 11
7.69497
 21
6.07162
 31
0.0
  0
LINE
  8
0
 62
     0
 10
7.69497
 20
6.07162
 30
0.0
 11
7.6164
 21
6.56773
 31
0.0
  0
LINE
  8
0
 62
     0
 10
7.6164
 20
6.56773
 30
0.0
 11
7.38904
 21
7.01283
 31
0.0
  0
LINE
  8
0
 62
     0
 10
7.38904
 20
7.01283
 30
0.0
 11
7.03488
 21
7.36836
 31
0.0
  0
LINE
  8
0
 62
     0
 10
7.03488
 20
7.36836
 30
0.0
 11
6.58841
 21
7.59576
 31
0.0
  0
LINE
  8
0
 62
     0
 10
6.58841
 20
7.59576
 30
0.0
 11
6.09505
 21
7.67292
 31
0.0
  0
LINE
  8
0
 62
     0
 10
6.09505
 20
7.67292
 30
0.0
 11
5.60035
 21
7.59576
 31
0.0
  0
LINE
  8
0
 62
     0
 10
154.475
 20
133.897
 30
0.0
 11
154.03
 21
133.67
 31
0.0
  0
LINE
  8
0
 62
     0
 10
154.03
 20
133.67
 30
0.0
 11
153.676
 21
133.315
 31
0.0
  0
LINE
  8
0
 62
     0
 10
153.676
 20
133.315
 30
0.0
 11
153.447
 21
132.869
 31
0.0
  0
LINE
  8
0
 62
     0
 10
153.447
 20
132.869
 30
0.0
 11
153.37
 21
132.374
 31
0.0
  0
LINE
  8
0
 62
     0
 10
153.37
 20
132.374
 30
0.0
 11
153.447
 21
131.88
 31
0.0
  0
LINE
  8
0
 62
     0
 10
153.447
 20
131.88
 30
0.0
 11
153.676
 21
131.434
 31
0.0
  0
LINE
  8
0
 62
     0
 10
153.676
 20
131.434
 30
0.0
 11
154.03
 21
131.08
 31
0.0
  0
LINE
  8
0
 62
     0
 10
154.03
 20
131.08
 30
0.0
 11
154.475
 21
130.852
 31
0.0
  0
LINE
  8
0
 62
     0
 10
154.475
 20
130.852
 30
0.0
 11
154.97
 21
130.773
 31
0.0
  0
LINE
  8
0
 62
     0
 10
154.97
 20
130.773
 30
0.0
 11
155.464
 21
130.852
 31
0.0
  0
LINE
  8
0
 62
     0
 10
155.464
 20
130.852
 30
0.0
 11
155.91
 21
131.08
 31
0.0
  0
LINE
  8
0
 62
     0
 10
155.91
 20
131.08
 30
0.0
 11
156.264
 21
131.434
 31
0.0
  0
LINE
  8
0
 62
     0
 10
156.264
 20
131.434
 30
0.0
 11
156.492
 21
131.88
 31
0.0
  0
LINE
  8
0
 62
     0
 10
156.492
 20
131.88
 30
0.0
 11
156.57
 21
132.374
 31
0.0
  0
LINE
  8
0
 62
     0
 10
156.57
 20
132.374
 30
0.0
 11
156.492
 21
132.869
 31
0.0
  0
LINE
  8
0
 62
     0
 10
156.492
 20
132.869
 30
0.0
 11
156.264
 21
133.315
 31
0.0
  0
LINE
  8
0
 62
     0
 10
156.264
 20
133.315
 30
0.0
 11
155.91
 21
133.67
 31
0.0
  0
LINE
  8
0
 62
     0
 10
155.91
 20
133.67
 30
0.0
 11
155.464
 21
133.897
 31
0.0
  0
LINE
  8
0
 62
     0
 10
155.464
 20
133.897
 30
0.0
 11
154.97
 21
133.974
 31
0.0
  0
LINE
  8
0
 62
     0
 10
154.97
 20
133.974
 30
0.0
 11
154.475
 21
133.897
 31
0.0
  0
LINE
  8
0
 62
     0
 10
303.35
 20
133.897
 30
0.0
 11
302.905
 21
133.67
 31
0.0
  0
LINE
  8
0
 62
     0
 10
302.905
 20
133.67
 30
0.0
 11
302.551
 21
133.315
 31
0.0
  0
LINE
  8
0
 62
     0
 10
302.551
 20
133.315
 30
0.0
 11
302.323
 21
132.869
 31
0.0
  0
LINE
  8
0
 62
     0
 10
302.323
 20
132.869
 30
0.0
 11
302.245
 21
132.374
 31
0.0
  0
LINE
  8
0
 62
     0
 10
302.245
 20
132.374
 30
0.0
 11
302.323
 21
131.88
 31
0.0
  0
LINE
  8
0
 62
     0
 10
302.323
 20
131.88
 30
0.0
 11
302.551
 21
131.434
 31
0.0
  0
LINE
  8
0
 62
     0
 10
302.551
 20
131.434
 30
0.0
 11
302.905
 21
131.08
 31
0.0
  0
LINE
  8
0
 62
     0
 10
302.905
 20
131.08
 30
0.0
 11
303.35
 21
130.852
 31
0.0
  0
LINE
  8
0
 62
     0
 10
303.35
 20
130.852
 30
0.0
 11
303.846
 21
130.773
 31
0.0
  0
LINE
  8
0
 62
     0
 10
303.846
 20
130.773
 30
0.0
 11
304.34
 21
130.852
 31
0.0
  0
LINE
  8
0
 62
     0
 10
304.34
 20
130.852
 30
0.0
 11
304.786
 21
131.08
 31
0.0
  0
LINE
  8
0
 62
     0
 10
304.786
 20
131.08
 30
0.0
 11
305.14
 21
131.434
 31
0.0
  0
LINE
  8
0
 62
     0
 10
305.14
 20
131.434
 30
0.0
 11
305.366
 21
131.88
 31
0.0
  0
LINE
  8
0
 62
     0
 10
305.366
 20
131.88
 30
0.0
 11
305.446
 21
132.374
 31
0.0
  0
LINE
  8
0
 62
     0
 10
305.446
 20
132.374
 30
0.0
 11
305.366
 21
132.869
 31
0.0
  0
LINE
  8
0
 62
     0
 10
305.366
 20
132.869
 30
0.0
 11
305.14
 21
133.315
 31
0.0
  0
LINE
  8
0
 62
     0
 10
305.14
 20
133.315
 30
0.0
 11
304.786
 21
133.67
 31
0.0
  0
LINE
  8
0
 62
     0
 10
304.786
 20
133.67
 30
0.0
 11
304.34
 21
133.897
 31
0.0
  0
LINE
  8
0
 62
     0
 10
304.34
 20
133.897
 30
0.0
 11
303.846
 21
133.974
 31
0.0
  0
LINE
  8
0
 62
     0
 10
303.846
 20
133.974
 30
0.0
 11
303.35
 21
133.897
 31
0.0
  0
LINE
  8
0
 62
     0
 10
5.60035
 20
133.897
 30
0.0
 11
5.15387
 21
133.67
 31
0.0
  0
LINE
  8
0
 62
     0
 10
5.15387
 20
133.67
 30
0.0
 11
4.79972
 21
133.315
 31
0.0
  0
LINE
  8
0
 62
     0
 10
4.79972
 20
133.315
 30
0.0
 11
4.57232
 21
132.869
 31
0.0
  0
LINE
  8
0
 62
     0
 10
4.57232
 20
132.869
 30
0.0
 11
4.49516
 21
132.374
 31
0.0
  0
LINE
  8
0
 62
     0
 10
4.49516
 20
132.374
 30
0.0
 11
4.57232
 21
131.88
 31
0.0
  0
LINE
  8
0
 62
     0
 10
4.57232
 20
131.88
 30
0.0
 11
4.79972
 21
131.434
 31
0.0
  0
LINE
  8
0
 62
     0
 10
4.79972
 20
131.434
 30
0.0
 11
5.15387
 21
131.08
 31
0.0
  0
LINE
  8
0
 62
     0
 10
5.15387
 20
131.08
 30
0.0
 11
5.60035
 21
130.852
 31
0.0
  0
LINE
  8
0
 62
     0
 10
5.60035
 20
130.852
 30
0.0
 11
6.09505
 21
130.773
 31
0.0
  0
LINE
  8
0
 62
     0
 10
6.09505
 20
130.773
 30
0.0
 11
6.58841
 21
130.852
 31
0.0
  0
LINE
  8
0
 62
     0
 10
6.58841
 20
130.852
 30
0.0
 11
7.03488
 21
131.08
 31
0.0
  0
LINE
  8
0
 62
     0
 10
7.03488
 20
131.08
 30
0.0
 11
7.38904
 21
131.434
 31
0.0
  0
LINE
  8
0
 62
     0
 10
7.38904
 20
131.434
 30
0.0
 11
7.6164
 21
131.88
 31
0.0
  0
LINE
  8
0
 62
     0
 10
7.6164
 20
131.88
 30
0.0
 11
7.69497
 21
132.374
 31
0.0
  0
LINE
  8
0
 62
     0
 10
7.69497
 20
132.374
 30
0.0
 11
7.6164
 21
132.869
 31
0.0
  0
LINE
  8
0
 62
     0
 10
7.6164
 20
132.869
 30
0.0
 11
7.38904
 21
133.315
 31
0.0
  0
LINE
  8
0
 62
     0
 10
7.38904
 20
133.315
 30
0.0
 11
7.03488
 21
133.67
 31
0.0
  0
LINE
  8
0
 62
     0
 10
7.03488
 20
133.67
 30
0.0
 11
6.58841
 21
133.897
 31
0.0
  0
LINE
  8
0
 62
     0
 10
6.58841
 20
133.897
 30
0.0
 11
6.09505
 21
133.974
 31
0.0
  0
LINE
  8
0
 62
     0
 10
6.09505
 20
133.974
 30
0.0
 11
5.60035
 21
133.897
 31
0.0
  0
ENDSEC
  0
EOF
