  0
SECTION
  2
HEADER
  9
$ACADVER
  1
AC1009
  9
$EXTMIN
 10
0.0
 20
0.0
 30
0.0
  9
$EXTMAX
 10
1000.0
 20
1000.0
 30
0.0
  9
$FILLMODE
 70
 0
  9
$SPLFRAME
 70
 1
  0
ENDSEC
  0
SECTION
  2
TABLES
  0
TABLE
  2
LAYER
 70
1
  0
LAYER
  2
0
 70
     0
 62
     7
  6
CONTINUOUS
  0
ENDTAB
  0
ENDSEC
  0
SECTION
  2
ENTITIES
  0
LINE
  8
0
 62
     0
 10
305.846
 20
138.373
 30
0.0
 11
306.159
 21
138.362
 31
0.0
  0
LINE
  8
0
 62
     0
 10
306.159
 20
138.362
 30
0.0
 11
306.47
 21
138.326
 31
0.0
  0
LINE
  8
0
 62
     0
 10
306.47
 20
138.326
 30
0.0
 11
306.779
 21
138.264
 31
0.0
  0
LINE
  8
0
 62
     0
 10
306.779
 20
138.264
 30
0.0
 11
307.082
 21
138.18
 31
0.0
  0
LINE
  8
0
 62
     0
 10
307.082
 20
138.18
 30
0.0
 11
307.376
 21
138.07
 31
0.0
  0
LINE
  8
0
 62
     0
 10
307.376
 20
138.07
 30
0.0
 11
307.661
 21
137.94
 31
0.0
  0
LINE
  8
0
 62
     0
 10
307.661
 20
137.94
 30
0.0
 11
307.935
 21
137.784
 31
0.0
  0
LINE
  8
0
 62
     0
 10
307.935
 20
137.784
 30
0.0
 11
308.197
 21
137.611
 31
0.0
  0
LINE
  8
0
 62
     0
 10
308.197
 20
137.611
 30
0.0
 11
308.442
 21
137.416
 31
0.0
  0
LINE
  8
0
 62
     0
 10
308.442
 20
137.416
 30
0.0
 11
308.673
 21
137.202
 31
0.0
  0
LINE
  8
0
 62
     0
 10
308.673
 20
137.202
 30
0.0
 11
308.887
 21
136.973
 31
0.0
  0
LINE
  8
0
 62
     0
 10
308.887
 20
136.973
 30
0.0
 11
309.082
 21
136.726
 31
0.0
  0
LINE
  8
0
 62
     0
 10
309.082
 20
136.726
 30
0.0
 11
309.255
 21
136.463
 31
0.0
  0
LINE
  8
0
 62
     0
 10
309.255
 20
136.463
 30
0.0
 11
309.409
 21
136.19
 31
0.0
  0
LINE
  8
0
 62
     0
 10
309.409
 20
136.19
 30
0.0
 11
309.541
 21
135.905
 31
0.0
  0
LINE
  8
0
 62
     0
 10
309.541
 20
135.905
 30
0.0
 11
309.649
 21
135.61
 31
0.0
  0
LINE
  8
0
 62
     0
 10
309.649
 20
135.61
 30
0.0
 11
309.735
 21
135.308
 31
0.0
  0
LINE
  8
0
 62
     0
 10
309.735
 20
135.308
 30
0.0
 11
309.795
 21
135.001
 31
0.0
  0
LINE
  8
0
 62
     0
 10
309.795
 20
135.001
 30
0.0
 11
309.833
 21
134.687
 31
0.0
  0
LINE
  8
0
 62
     0
 10
309.833
 20
134.687
 30
0.0
 11
309.846
 21
134.375
 31
0.0
  0
LINE
  8
0
 62
     0
 10
309.846
 20
134.375
 30
0.0
 11
309.846
 21
4.07211
 31
0.0
  0
LINE
  8
0
 62
     0
 10
309.846
 20
4.07211
 30
0.0
 11
309.833
 21
3.75931
 31
0.0
  0
LINE
  8
0
 62
     0
 10
309.833
 20
3.75931
 30
0.0
 11
309.795
 21
3.44923
 31
0.0
  0
LINE
  8
0
 62
     0
 10
309.795
 20
3.44923
 30
0.0
 11
309.735
 21
3.14055
 31
0.0
  0
LINE
  8
0
 62
     0
 10
309.735
 20
3.14055
 30
0.0
 11
309.649
 21
2.836
 31
0.0
  0
LINE
  8
0
 62
     0
 10
309.649
 20
2.836
 30
0.0
 11
309.541
 21
2.54248
 31
0.0
  0
LINE
  8
0
 62
     0
 10
309.541
 20
2.54248
 30
0.0
 11
309.409
 21
2.2586
 31
0.0
  0
LINE
  8
0
 62
     0
 10
309.409
 20
2.2586
 30
0.0
 11
309.255
 21
1.983
 31
0.0
  0
LINE
  8
0
 62
     0
 10
309.255
 20
1.983
 30
0.0
 11
309.082
 21
1.72117
 31
0.0
  0
LINE
  8
0
 62
     0
 10
309.082
 20
1.72117
 30
0.0
 11
308.887
 21
1.47726
 31
0.0
  0
LINE
  8
0
 62
     0
 10
308.887
 20
1.47726
 30
0.0
 11
308.673
 21
1.24575
 31
0.0
  0
LINE
  8
0
 62
     0
 10
308.673
 20
1.24575
 30
0.0
 11
308.442
 21
1.03077
 31
0.0
  0
LINE
  8
0
 62
     0
 10
308.442
 20
1.03077
 30
0.0
 11
308.197
 21
0.836468
 31
0.0
  0
LINE
  8
0
 62
     0
 10
308.197
 20
0.836468
 30
0.0
 11
307.935
 21
0.662838
 31
0.0
  0
LINE
  8
0
 62
     0
 10
307.935
 20
0.662838
 30
0.0
 11
307.661
 21
0.509873
 31
0.0
  0
LINE
  8
0
 62
     0
 10
307.661
 20
0.509873
 30
0.0
 11
307.376
 21
0.377582
 31
0.0
  0
LINE
  8
0
 62
     0
 10
307.376
 20
0.377582
 30
0.0
 11
307.082
 21
0.270095
 31
0.0
  0
LINE
  8
0
 62
     0
 10
307.082
 20
0.270095
 30
0.0
 11
306.779
 21
0.184657
 31
0.0
  0
LINE
  8
0
 62
     0
 10
306.779
 20
0.184657
 30
0.0
 11
306.47
 21
0.124024
 31
0.0
  0
LINE
  8
0
 62
     0
 10
306.47
 20
0.124024
 30
0.0
 11
306.159
 21
0.0854385
 31
0.0
  0
LINE
  8
0
 62
     0
 10
306.159
 20
0.0854385
 30
0.0
 11
305.846
 21
0.0730359
 31
0.0
  0
LINE
  8
0
 62
     0
 10
305.846
 20
0.0730359
 30
0.0
 11
4.09416
 21
0.071658
 31
0.0
  0
LINE
  8
0
 62
     0
 10
4.09416
 20
0.071658
 30
0.0
 11
3.78135
 21
0.0854385
 31
0.0
  0
LINE
  8
0
 62
     0
 10
3.78135
 20
0.0854385
 30
0.0
 11
3.46852
 21
0.124024
 31
0.0
  0
LINE
  8
0
 62
     0
 10
3.46852
 20
0.124024
 30
0.0
 11
3.16122
 21
0.184657
 31
0.0
  0
LINE
  8
0
 62
     0
 10
3.16122
 20
0.184657
 30
0.0
 11
2.85805
 21
0.270095
 31
0.0
  0
LINE
  8
0
 62
     0
 10
2.85805
 20
0.270095
 30
0.0
 11
2.56315
 21
0.377582
 31
0.0
  0
LINE
  8
0
 62
     0
 10
2.56315
 20
0.377582
 30
0.0
 11
2.27928
 21
0.509873
 31
0.0
  0
LINE
  8
0
 62
     0
 10
2.27928
 20
0.509873
 30
0.0
 11
2.00504
 21
0.662838
 31
0.0
  0
LINE
  8
0
 62
     0
 10
2.00504
 20
0.662838
 30
0.0
 11
1.74322
 21
0.836468
 31
0.0
  0
LINE
  8
0
 62
     0
 10
1.74322
 20
0.836468
 30
0.0
 11
1.49655
 21
1.03077
 31
0.0
  0
LINE
  8
0
 62
     0
 10
1.49655
 20
1.03077
 30
0.0
 11
1.26642
 21
1.24575
 31
0.0
  0
LINE
  8
0
 62
     0
 10
1.26642
 20
1.24575
 30
0.0
 11
1.05282
 21
1.47726
 31
0.0
  0
LINE
  8
0
 62
     0
 10
1.05282
 20
1.47726
 30
0.0
 11
0.857141
 21
1.72117
 31
0.0
  0
LINE
  8
0
 62
     0
 10
0.857141
 20
1.72117
 30
0.0
 11
0.683507
 21
1.983
 31
0.0
  0
LINE
  8
0
 62
     0
 10
0.683507
 20
1.983
 30
0.0
 11
0.529167
 21
2.2586
 31
0.0
  0
LINE
  8
0
 62
     0
 10
0.529167
 20
2.2586
 30
0.0
 11
0.398254
 21
2.54248
 31
0.0
  0
LINE
  8
0
 62
     0
 10
0.398254
 20
2.54248
 30
0.0
 11
0.289388
 21
2.836
 31
0.0
  0
LINE
  8
0
 62
     0
 10
0.289388
 20
2.836
 30
0.0
 11
0.205328
 21
3.14055
 31
0.0
  0
LINE
  8
0
 62
     0
 10
0.205328
 20
3.14055
 30
0.0
 11
0.143316
 21
3.44923
 31
0.0
  0
LINE
  8
0
 62
     0
 10
0.143316
 20
3.44923
 30
0.0
 11
0.106109
 21
3.75931
 31
0.0
  0
LINE
  8
0
 62
     0
 10
0.106109
 20
3.75931
 30
0.0
 11
0.0937066
 21
4.07211
 31
0.0
  0
LINE
  8
0
 62
     0
 10
0.0937066
 20
4.07211
 30
0.0
 11
0.0950846
 21
134.375
 31
0.0
  0
LINE
  8
0
 62
     0
 10
0.0950846
 20
134.375
 30
0.0
 11
0.106109
 21
134.687
 31
0.0
  0
LINE
  8
0
 62
     0
 10
0.106109
 20
134.687
 30
0.0
 11
0.143316
 21
135.001
 31
0.0
  0
LINE
  8
0
 62
     0
 10
0.143316
 20
135.001
 30
0.0
 11
0.205328
 21
135.308
 31
0.0
  0
LINE
  8
0
 62
     0
 10
0.205328
 20
135.308
 30
0.0
 11
0.289388
 21
135.61
 31
0.0
  0
LINE
  8
0
 62
     0
 10
0.289388
 20
135.61
 30
0.0
 11
0.398254
 21
135.905
 31
0.0
  0
LINE
  8
0
 62
     0
 10
0.398254
 20
135.905
 30
0.0
 11
0.529167
 21
136.19
 31
0.0
  0
LINE
  8
0
 62
     0
 10
0.529167
 20
136.19
 30
0.0
 11
0.683507
 21
136.463
 31
0.0
  0
LINE
  8
0
 62
     0
 10
0.683507
 20
136.463
 30
0.0
 11
0.857141
 21
136.726
 31
0.0
  0
LINE
  8
0
 62
     0
 10
0.857141
 20
136.726
 30
0.0
 11
1.05282
 21
136.973
 31
0.0
  0
LINE
  8
0
 62
     0
 10
1.05282
 20
136.973
 30
0.0
 11
1.26642
 21
137.202
 31
0.0
  0
LINE
  8
0
 62
     0
 10
1.26642
 20
137.202
 30
0.0
 11
1.49655
 21
137.416
 31
0.0
  0
LINE
  8
0
 62
     0
 10
1.49655
 20
137.416
 30
0.0
 11
1.74322
 21
137.611
 31
0.0
  0
LINE
  8
0
 62
     0
 10
1.74322
 20
137.611
 30
0.0
 11
2.00504
 21
137.784
 31
0.0
  0
LINE
  8
0
 62
     0
 10
2.00504
 20
137.784
 30
0.0
 11
2.27928
 21
137.94
 31
0.0
  0
LINE
  8
0
 62
     0
 10
2.27928
 20
137.94
 30
0.0
 11
2.56315
 21
138.07
 31
0.0
  0
LINE
  8
0
 62
     0
 10
2.56315
 20
138.07
 30
0.0
 11
2.85805
 21
138.18
 31
0.0
  0
LINE
  8
0
 62
     0
 10
2.85805
 20
138.18
 30
0.0
 11
3.16122
 21
138.264
 31
0.0
  0
LINE
  8
0
 62
     0
 10
3.16122
 20
138.264
 30
0.0
 11
3.46852
 21
138.326
 31
0.0
  0
LINE
  8
0
 62
     0
 10
3.46852
 20
138.326
 30
0.0
 11
3.78135
 21
138.362
 31
0.0
  0
LINE
  8
0
 62
     0
 10
3.78135
 20
138.362
 30
0.0
 11
4.09416
 21
138.374
 31
0.0
  0
LINE
  8
0
 62
     0
 10
4.09416
 20
138.374
 30
0.0
 11
305.846
 21
138.373
 31
0.0
  0
LINE
  8
0
 62
     0
 10
303.35
 20
7.59576
 30
0.0
 11
302.905
 21
7.36836
 31
0.0
  0
LINE
  8
0
 62
     0
 10
302.905
 20
7.36836
 30
0.0
 11
302.551
 21
7.01283
 31
0.0
  0
LINE
  8
0
 62
     0
 10
302.551
 20
7.01283
 30
0.0
 11
302.323
 21
6.56773
 31
0.0
  0
LINE
  8
0
 62
     0
 10
302.323
 20
6.56773
 30
0.0
 11
302.245
 21
6.07162
 31
0.0
  0
LINE
  8
0
 62
     0
 10
302.245
 20
6.07162
 30
0.0
 11
302.323
 21
5.57967
 31
0.0
  0
LINE
  8
0
 62
     0
 10
302.323
 20
5.57967
 30
0.0
 11
302.551
 21
5.13182
 31
0.0
  0
LINE
  8
0
 62
     0
 10
302.551
 20
5.13182
 30
0.0
 11
302.905
 21
4.77767
 31
0.0
  0
LINE
  8
0
 62
     0
 10
302.905
 20
4.77767
 30
0.0
 11
303.35
 21
4.55306
 31
0.0
  0
LINE
  8
0
 62
     0
 10
303.35
 20
4.55306
 30
0.0
 11
303.846
 21
4.47449
 31
0.0
  0
LINE
  8
0
 62
     0
 10
303.846
 20
4.47449
 30
0.0
 11
304.34
 21
4.55306
 31
0.0
  0
LINE
  8
0
 62
     0
 10
304.34
 20
4.55306
 30
0.0
 11
304.786
 21
4.77767
 31
0.0
  0
LINE
  8
0
 62
     0
 10
304.786
 20
4.77767
 30
0.0
 11
305.14
 21
5.13182
 31
0.0
  0
LINE
  8
0
 62
     0
 10
305.14
 20
5.13182
 30
0.0
 11
305.366
 21
5.57967
 31
0.0
  0
LINE
  8
0
 62
     0
 10
305.366
 20
5.57967
 30
0.0
 11
305.446
 21
6.07162
 31
0.0
  0
LINE
  8
0
 62
     0
 10
305.446
 20
6.07162
 30
0.0
 11
305.366
 21
6.56773
 31
0.0
  0
LINE
  8
0
 62
     0
 10
305.366
 20
6.56773
 30
0.0
 11
305.14
 21
7.01283
 31
0.0
  0
LINE
  8
0
 62
     0
 10
305.14
 20
7.01283
 30
0.0
 11
304.786
 21
7.36836
 31
0.0
  0
LINE
  8
0
 62
     0
 10
304.786
 20
7.36836
 30
0.0
 11
304.34
 21
7.59576
 31
0.0
  0
LINE
  8
0
 62
     0
 10
304.34
 20
7.59576
 30
0.0
 11
303.846
 21
7.67292
 31
0.0
  0
LINE
  8
0
 62
     0
 10
303.846
 20
7.67292
 30
0.0
 11
303.35
 21
7.59576
 31
0.0
  0
LINE
  8
0
 62
     0
 10
154.475
 20
7.59576
 30
0.0
 11
154.03
 21
7.36836
 31
0.0
  0
LINE
  8
0
 62
     0
 10
154.03
 20
7.36836
 30
0.0
 11
153.676
 21
7.01283
 31
0.0
  0
LINE
  8
0
 62
     0
 10
153.676
 20
7.01283
 30
0.0
 11
153.447
 21
6.56773
 31
0.0
  0
LINE
  8
0
 62
     0
 10
153.447
 20
6.56773
 30
0.0
 11
153.37
 21
6.07162
 31
0.0
  0
LINE
  8
0
 62
     0
 10
153.37
 20
6.07162
 30
0.0
 11
153.447
 21
5.57967
 31
0.0
  0
LINE
  8
0
 62
     0
 10
153.447
 20
5.57967
 30
0.0
 11
153.676
 21
5.13182
 31
0.0
  0
LINE
  8
0
 62
     0
 10
153.676
 20
5.13182
 30
0.0
 11
154.03
 21
4.77767
 31
0.0
  0
LINE
  8
0
 62
     0
 10
154.03
 20
4.77767
 30
0.0
 11
154.475
 21
4.55306
 31
0.0
  0
LINE
  8
0
 62
     0
 10
154.475
 20
4.55306
 30
0.0
 11
154.97
 21
4.47449
 31
0.0
  0
LINE
  8
0
 62
     0
 10
154.97
 20
4.47449
 30
0.0
 11
155.464
 21
4.55306
 31
0.0
  0
LINE
  8
0
 62
     0
 10
155.464
 20
4.55306
 30
0.0
 11
155.91
 21
4.77767
 31
0.0
  0
LINE
  8
0
 62
     0
 10
155.91
 20
4.77767
 30
0.0
 11
156.264
 21
5.13182
 31
0.0
  0
LINE
  8
0
 62
     0
 10
156.264
 20
5.13182
 30
0.0
 11
156.492
 21
5.57967
 31
0.0
  0
LINE
  8
0
 62
     0
 10
156.492
 20
5.57967
 30
0.0
 11
156.57
 21
6.07162
 31
0.0
  0
LINE
  8
0
 62
     0
 10
156.57
 20
6.07162
 30
0.0
 11
156.492
 21
6.56773
 31
0.0
  0
LINE
  8
0
 62
     0
 10
156.492
 20
6.56773
 30
0.0
 11
156.264
 21
7.01283
 31
0.0
  0
LINE
  8
0
 62
     0
 10
156.264
 20
7.01283
 30
0.0
 11
155.91
 21
7.36836
 31
0.0
  0
LINE
  8
0
 62
     0
 10
155.91
 20
7.36836
 30
0.0
 11
155.464
 21
7.59576
 31
0.0
  0
LINE
  8
0
 62
     0
 10
155.464
 20
7.59576
 30
0.0
 11
154.97
 21
7.67292
 31
0.0
  0
LINE
  8
0
 62
     0
 10
154.97
 20
7.67292
 30
0.0
 11
154.475
 21
7.59576
 31
0.0
  0
LINE
  8
0
 62
     0
 10
5.60035
 20
7.59576
 30
0.0
 11
5.15387
 21
7.36836
 31
0.0
  0
LINE
  8
0
 62
     0
 10
5.15387
 20
7.36836
 30
0.0
 11
4.79972
 21
7.01283
 31
0.0
  0
LINE
  8
0
 62
     0
 10
4.79972
 20
7.01283
 30
0.0
 11
4.57232
 21
6.56773
 31
0.0
  0
LINE
  8
0
 62
     0
 10
4.57232
 20
6.56773
 30
0.0
 11
4.49516
 21
6.07162
 31
0.0
  0
LINE
  8
0
 62
     0
 10
4.49516
 20
6.07162
 30
0.0
 11
4.57232
 21
5.57967
 31
0.0
  0
LINE
  8
0
 62
     0
 10
4.57232
 20
5.57967
 30
0.0
 11
4.79972
 21
5.13182
 31
0.0
  0
LINE
  8
0
 62
     0
 10
4.79972
 20
5.13182
 30
0.0
 11
5.15387
 21
4.77767
 31
0.0
  0
LINE
  8
0
 62
     0
 10
5.15387
 20
4.77767
 30
0.0
 11
5.60035
 21
4.55306
 31
0.0
  0
LINE
  8
0
 62
     0
 10
5.60035
 20
4.55306
 30
0.0
 11
6.09505
 21
4.47449
 31
0.0
  0
LINE
  8
0
 62
     0
 10
6.09505
 20
4.47449
 30
0.0
 11
6.58841
 21
4.55306
 31
0.0
  0
LINE
  8
0
 62
     0
 10
6.58841
 20
4.55306
 30
0.0
 11
7.03488
 21
4.77767
 31
0.0
  0
LINE
  8
0
 62
     0
 10
7.03488
 20
4.77767
 30
0.0
 11
7.38904
 21
5.13182
 31
0.0
  0
LINE
  8
0
 62
     0
 10
7.38904
 20
5.13182
 30
0.0
 11
7.6164
 21
5.57967
 31
0.0
  0
LINE
  8
0
 62
     0
 10
7.6164
 20
5.57967
 30
0.0
 11
7.69497
 21
6.07162
 31
0.0
  0
LINE
  8
0
 62
     0
 10
7.69497
 20
6.07162
 30
0.0
 11
7.6164
 21
6.56773
 31
0.0
  0
LINE
  8
0
 62
     0
 10
7.6164
 20
6.56773
 30
0.0
 11
7.38904
 21
7.01283
 31
0.0
  0
LINE
  8
0
 62
     0
 10
7.38904
 20
7.01283
 30
0.0
 11
7.03488
 21
7.36836
 31
0.0
  0
LINE
  8
0
 62
     0
 10
7.03488
 20
7.36836
 30
0.0
 11
6.58841
 21
7.59576
 31
0.0
  0
LINE
  8
0
 62
     0
 10
6.58841
 20
7.59576
 30
0.0
 11
6.09505
 21
7.67292
 31
0.0
  0
LINE
  8
0
 62
     0
 10
6.09505
 20
7.67292
 30
0.0
 11
5.60035
 21
7.59576
 31
0.0
  0
LINE
  8
0
 62
     0
 10
114.632
 20
28.5998
 30
0.0
 11
114.632
 21
27.6007
 31
0.0
  0
LINE
  8
0
 62
     0
 10
114.632
 20
27.6007
 30
0.0
 11
113.832
 21
27.6007
 31
0.0
  0
LINE
  8
0
 62
     0
 10
113.832
 20
27.6007
 30
0.0
 11
113.832
 21
24.4988
 31
0.0
  0
LINE
  8
0
 62
     0
 10
113.832
 20
24.4988
 30
0.0
 11
114.632
 21
24.4988
 31
0.0
  0
LINE
  8
0
 62
     0
 10
114.632
 20
24.4988
 30
0.0
 11
114.632
 21
18.6986
 31
0.0
  0
LINE
  8
0
 62
     0
 10
114.632
 20
18.6986
 30
0.0
 11
113.832
 21
18.6986
 31
0.0
  0
LINE
  8
0
 62
     0
 10
113.832
 20
18.6986
 30
0.0
 11
113.832
 21
15.6008
 31
0.0
  0
LINE
  8
0
 62
     0
 10
113.832
 20
15.6008
 30
0.0
 11
114.632
 21
15.6008
 31
0.0
  0
LINE
  8
0
 62
     0
 10
114.632
 20
15.6008
 30
0.0
 11
114.632
 21
14.6003
 31
0.0
  0
LINE
  8
0
 62
     0
 10
114.632
 20
14.6003
 30
0.0
 11
128.632
 21
14.6003
 31
0.0
  0
LINE
  8
0
 62
     0
 10
128.632
 20
14.6003
 30
0.0
 11
128.632
 21
15.6008
 31
0.0
  0
LINE
  8
0
 62
     0
 10
128.632
 20
15.6008
 30
0.0
 11
129.432
 21
15.6008
 31
0.0
  0
LINE
  8
0
 62
     0
 10
129.432
 20
15.6008
 30
0.0
 11
129.432
 21
18.6986
 31
0.0
  0
LINE
  8
0
 62
     0
 10
129.432
 20
18.6986
 30
0.0
 11
128.632
 21
18.6986
 31
0.0
  0
LINE
  8
0
 62
     0
 10
128.632
 20
18.6986
 30
0.0
 11
128.632
 21
24.4988
 31
0.0
  0
LINE
  8
0
 62
     0
 10
128.632
 20
24.4988
 30
0.0
 11
129.432
 21
24.4988
 31
0.0
  0
LINE
  8
0
 62
     0
 10
129.432
 20
24.4988
 30
0.0
 11
129.432
 21
27.6007
 31
0.0
  0
LINE
  8
0
 62
     0
 10
129.432
 20
27.6007
 30
0.0
 11
128.632
 21
27.6007
 31
0.0
  0
LINE
  8
0
 62
     0
 10
128.632
 20
27.6007
 30
0.0
 11
128.632
 21
28.5998
 31
0.0
  0
LINE
  8
0
 62
     0
 10
128.632
 20
28.5998
 30
0.0
 11
114.632
 21
28.5998
 31
0.0
  0
LINE
  8
0
 62
     0
 10
133.682
 20
28.5998
 30
0.0
 11
133.682
 21
27.6007
 31
0.0
  0
LINE
  8
0
 62
     0
 10
133.682
 20
27.6007
 30
0.0
 11
132.882
 21
27.6007
 31
0.0
  0
LINE
  8
0
 62
     0
 10
132.882
 20
27.6007
 30
0.0
 11
132.882
 21
24.4988
 31
0.0
  0
LINE
  8
0
 62
     0
 10
132.882
 20
24.4988
 30
0.0
 11
133.682
 21
24.4988
 31
0.0
  0
LINE
  8
0
 62
     0
 10
133.682
 20
24.4988
 30
0.0
 11
133.682
 21
18.6986
 31
0.0
  0
LINE
  8
0
 62
     0
 10
133.682
 20
18.6986
 30
0.0
 11
132.882
 21
18.6986
 31
0.0
  0
LINE
  8
0
 62
     0
 10
132.882
 20
18.6986
 30
0.0
 11
132.882
 21
15.6008
 31
0.0
  0
LINE
  8
0
 62
     0
 10
132.882
 20
15.6008
 30
0.0
 11
133.682
 21
15.6008
 31
0.0
  0
LINE
  8
0
 62
     0
 10
133.682
 20
15.6008
 30
0.0
 11
133.682
 21
14.6003
 31
0.0
  0
LINE
  8
0
 62
     0
 10
133.682
 20
14.6003
 30
0.0
 11
147.682
 21
14.6003
 31
0.0
  0
LINE
  8
0
 62
     0
 10
147.682
 20
14.6003
 30
0.0
 11
147.682
 21
15.6008
 31
0.0
  0
LINE
  8
0
 62
     0
 10
147.682
 20
15.6008
 30
0.0
 11
148.482
 21
15.6008
 31
0.0
  0
LINE
  8
0
 62
     0
 10
148.482
 20
15.6008
 30
0.0
 11
148.482
 21
18.6986
 31
0.0
  0
LINE
  8
0
 62
     0
 10
148.482
 20
18.6986
 30
0.0
 11
147.682
 21
18.6986
 31
0.0
  0
LINE
  8
0
 62
     0
 10
147.682
 20
18.6986
 30
0.0
 11
147.682
 21
24.4988
 31
0.0
  0
LINE
  8
0
 62
     0
 10
147.682
 20
24.4988
 30
0.0
 11
148.482
 21
24.4988
 31
0.0
  0
LINE
  8
0
 62
     0
 10
148.482
 20
24.4988
 30
0.0
 11
148.482
 21
27.6007
 31
0.0
  0
LINE
  8
0
 62
     0
 10
148.482
 20
27.6007
 30
0.0
 11
147.682
 21
27.6007
 31
0.0
  0
LINE
  8
0
 62
     0
 10
147.682
 20
27.6007
 30
0.0
 11
147.682
 21
28.5998
 31
0.0
  0
LINE
  8
0
 62
     0
 10
147.682
 20
28.5998
 30
0.0
 11
133.682
 21
28.5998
 31
0.0
  0
LINE
  8
0
 62
     0
 10
152.732
 20
28.5998
 30
0.0
 11
152.732
 21
27.6007
 31
0.0
  0
LINE
  8
0
 62
     0
 10
152.732
 20
27.6007
 30
0.0
 11
151.932
 21
27.6007
 31
0.0
  0
LINE
  8
0
 62
     0
 10
151.932
 20
27.6007
 30
0.0
 11
151.932
 21
24.4988
 31
0.0
  0
LINE
  8
0
 62
     0
 10
151.932
 20
24.4988
 30
0.0
 11
152.732
 21
24.4988
 31
0.0
  0
LINE
  8
0
 62
     0
 10
152.732
 20
24.4988
 30
0.0
 11
152.732
 21
18.6986
 31
0.0
  0
LINE
  8
0
 62
     0
 10
152.732
 20
18.6986
 30
0.0
 11
151.932
 21
18.6986
 31
0.0
  0
LINE
  8
0
 62
     0
 10
151.932
 20
18.6986
 30
0.0
 11
151.932
 21
15.6008
 31
0.0
  0
LINE
  8
0
 62
     0
 10
151.932
 20
15.6008
 30
0.0
 11
152.732
 21
15.6008
 31
0.0
  0
LINE
  8
0
 62
     0
 10
152.732
 20
15.6008
 30
0.0
 11
152.732
 21
14.6003
 31
0.0
  0
LINE
  8
0
 62
     0
 10
152.732
 20
14.6003
 30
0.0
 11
166.732
 21
14.6003
 31
0.0
  0
LINE
  8
0
 62
     0
 10
166.732
 20
14.6003
 30
0.0
 11
166.732
 21
15.6008
 31
0.0
  0
LINE
  8
0
 62
     0
 10
166.732
 20
15.6008
 30
0.0
 11
167.532
 21
15.6008
 31
0.0
  0
LINE
  8
0
 62
     0
 10
167.532
 20
15.6008
 30
0.0
 11
167.532
 21
18.6986
 31
0.0
  0
LINE
  8
0
 62
     0
 10
167.532
 20
18.6986
 30
0.0
 11
166.732
 21
18.6986
 31
0.0
  0
LINE
  8
0
 62
     0
 10
166.732
 20
18.6986
 30
0.0
 11
166.732
 21
24.4988
 31
0.0
  0
LINE
  8
0
 62
     0
 10
166.732
 20
24.4988
 30
0.0
 11
167.532
 21
24.4988
 31
0.0
  0
LINE
  8
0
 62
     0
 10
167.532
 20
24.4988
 30
0.0
 11
167.532
 21
27.6007
 31
0.0
  0
LINE
  8
0
 62
     0
 10
167.532
 20
27.6007
 30
0.0
 11
166.732
 21
27.6007
 31
0.0
  0
LINE
  8
0
 62
     0
 10
166.732
 20
27.6007
 30
0.0
 11
166.732
 21
28.5998
 31
0.0
  0
LINE
  8
0
 62
     0
 10
166.732
 20
28.5998
 30
0.0
 11
152.732
 21
28.5998
 31
0.0
  0
LINE
  8
0
 62
     0
 10
136.063
 20
47.6497
 30
0.0
 11
136.063
 21
46.6492
 31
0.0
  0
LINE
  8
0
 62
     0
 10
136.063
 20
46.6492
 30
0.0
 11
135.263
 21
46.6492
 31
0.0
  0
LINE
  8
0
 62
     0
 10
135.263
 20
46.6492
 30
0.0
 11
135.263
 21
43.5487
 31
0.0
  0
LINE
  8
0
 62
     0
 10
135.263
 20
43.5487
 30
0.0
 11
136.063
 21
43.5487
 31
0.0
  0
LINE
  8
0
 62
     0
 10
136.063
 20
43.5487
 30
0.0
 11
136.063
 21
42.9479
 31
0.0
  0
LINE
  8
0
 62
     0
 10
136.063
 20
42.9479
 30
0.0
 11
96.4378
 21
42.9479
 31
0.0
  0
LINE
  8
0
 62
     0
 10
96.4378
 20
42.9479
 30
0.0
 11
96.4378
 21
46.1793
 31
0.0
  0
LINE
  8
0
 62
     0
 10
96.4378
 20
46.1793
 30
0.0
 11
89.6881
 21
46.1793
 31
0.0
  0
LINE
  8
0
 62
     0
 10
89.6881
 20
46.1793
 30
0.0
 11
89.6881
 21
42.9479
 31
0.0
  0
LINE
  8
0
 62
     0
 10
89.6881
 20
42.9479
 30
0.0
 11
88.863
 21
42.9479
 31
0.0
  0
LINE
  8
0
 62
     0
 10
88.863
 20
42.9479
 30
0.0
 11
88.863
 21
40.1493
 31
0.0
  0
LINE
  8
0
 62
     0
 10
88.863
 20
40.1493
 30
0.0
 11
89.6881
 21
40.1493
 31
0.0
  0
LINE
  8
0
 62
     0
 10
89.6881
 20
40.1493
 30
0.0
 11
89.6881
 21
33.8791
 31
0.0
  0
LINE
  8
0
 62
     0
 10
89.6881
 20
33.8791
 30
0.0
 11
91.4121
 21
33.8791
 31
0.0
  0
LINE
  8
0
 62
     0
 10
91.4121
 20
33.8791
 30
0.0
 11
91.4121
 21
32.6802
 31
0.0
  0
LINE
  8
0
 62
     0
 10
91.4121
 20
32.6802
 30
0.0
 11
94.7127
 21
32.6802
 31
0.0
  0
LINE
  8
0
 62
     0
 10
94.7127
 20
32.6802
 30
0.0
 11
94.7127
 21
33.8791
 31
0.0
  0
LINE
  8
0
 62
     0
 10
94.7127
 20
33.8791
 30
0.0
 11
96.4378
 21
33.8791
 31
0.0
  0
LINE
  8
0
 62
     0
 10
96.4378
 20
33.8791
 30
0.0
 11
96.4378
 21
38.3494
 31
0.0
  0
LINE
  8
0
 62
     0
 10
96.4378
 20
38.3494
 30
0.0
 11
136.063
 21
38.3494
 31
0.0
  0
LINE
  8
0
 62
     0
 10
136.063
 20
38.3494
 30
0.0
 11
136.063
 21
37.7486
 31
0.0
  0
LINE
  8
0
 62
     0
 10
136.063
 20
37.7486
 30
0.0
 11
135.263
 21
37.7486
 31
0.0
  0
LINE
  8
0
 62
     0
 10
135.263
 20
37.7486
 30
0.0
 11
135.263
 21
34.6494
 31
0.0
  0
LINE
  8
0
 62
     0
 10
135.263
 20
34.6494
 30
0.0
 11
136.063
 21
34.6494
 31
0.0
  0
LINE
  8
0
 62
     0
 10
136.063
 20
34.6494
 30
0.0
 11
136.063
 21
33.6503
 31
0.0
  0
LINE
  8
0
 62
     0
 10
136.063
 20
33.6503
 30
0.0
 11
150.063
 21
33.6503
 31
0.0
  0
LINE
  8
0
 62
     0
 10
150.063
 20
33.6503
 30
0.0
 11
150.063
 21
34.6494
 31
0.0
  0
LINE
  8
0
 62
     0
 10
150.063
 20
34.6494
 30
0.0
 11
150.862
 21
34.6494
 31
0.0
  0
LINE
  8
0
 62
     0
 10
150.862
 20
34.6494
 30
0.0
 11
150.862
 21
37.7486
 31
0.0
  0
LINE
  8
0
 62
     0
 10
150.862
 20
37.7486
 30
0.0
 11
150.063
 21
37.7486
 31
0.0
  0
LINE
  8
0
 62
     0
 10
150.063
 20
37.7486
 30
0.0
 11
150.063
 21
38.3494
 31
0.0
  0
LINE
  8
0
 62
     0
 10
150.063
 20
38.3494
 30
0.0
 11
189.688
 21
38.3494
 31
0.0
  0
LINE
  8
0
 62
     0
 10
189.688
 20
38.3494
 30
0.0
 11
189.688
 21
33.8791
 31
0.0
  0
LINE
  8
0
 62
     0
 10
189.688
 20
33.8791
 30
0.0
 11
191.412
 21
33.8791
 31
0.0
  0
LINE
  8
0
 62
     0
 10
191.412
 20
33.8791
 30
0.0
 11
191.412
 21
32.6802
 31
0.0
  0
LINE
  8
0
 62
     0
 10
191.412
 20
32.6802
 30
0.0
 11
194.713
 21
32.6802
 31
0.0
  0
LINE
  8
0
 62
     0
 10
194.713
 20
32.6802
 30
0.0
 11
194.713
 21
33.8791
 31
0.0
  0
LINE
  8
0
 62
     0
 10
194.713
 20
33.8791
 30
0.0
 11
196.438
 21
33.8791
 31
0.0
  0
LINE
  8
0
 62
     0
 10
196.438
 20
33.8791
 30
0.0
 11
196.438
 21
40.1493
 31
0.0
  0
LINE
  8
0
 62
     0
 10
196.438
 20
40.1493
 30
0.0
 11
197.263
 21
40.1493
 31
0.0
  0
LINE
  8
0
 62
     0
 10
197.263
 20
40.1493
 30
0.0
 11
197.263
 21
42.9479
 31
0.0
  0
LINE
  8
0
 62
     0
 10
197.263
 20
42.9479
 30
0.0
 11
196.438
 21
42.9479
 31
0.0
  0
LINE
  8
0
 62
     0
 10
196.438
 20
42.9479
 30
0.0
 11
196.438
 21
46.1793
 31
0.0
  0
LINE
  8
0
 62
     0
 10
196.438
 20
46.1793
 30
0.0
 11
189.688
 21
46.1793
 31
0.0
  0
LINE
  8
0
 62
     0
 10
189.688
 20
46.1793
 30
0.0
 11
189.688
 21
42.9479
 31
0.0
  0
LINE
  8
0
 62
     0
 10
189.688
 20
42.9479
 30
0.0
 11
150.063
 21
42.9479
 31
0.0
  0
LINE
  8
0
 62
     0
 10
150.063
 20
42.9479
 30
0.0
 11
150.063
 21
43.5487
 31
0.0
  0
LINE
  8
0
 62
     0
 10
150.063
 20
43.5487
 30
0.0
 11
150.862
 21
43.5487
 31
0.0
  0
LINE
  8
0
 62
     0
 10
150.862
 20
43.5487
 30
0.0
 11
150.862
 21
46.6492
 31
0.0
  0
LINE
  8
0
 62
     0
 10
150.862
 20
46.6492
 30
0.0
 11
150.063
 21
46.6492
 31
0.0
  0
LINE
  8
0
 62
     0
 10
150.063
 20
46.6492
 30
0.0
 11
150.063
 21
47.6497
 31
0.0
  0
LINE
  8
0
 62
     0
 10
150.063
 20
47.6497
 30
0.0
 11
136.063
 21
47.6497
 31
0.0
  0
LINE
  8
0
 62
     0
 10
17.0009
 20
47.6497
 30
0.0
 11
17.0009
 21
46.6492
 31
0.0
  0
LINE
  8
0
 62
     0
 10
17.0009
 20
46.6492
 30
0.0
 11
16.2002
 21
46.6492
 31
0.0
  0
LINE
  8
0
 62
     0
 10
16.2002
 20
46.6492
 30
0.0
 11
16.2002
 21
43.5487
 31
0.0
  0
LINE
  8
0
 62
     0
 10
16.2002
 20
43.5487
 30
0.0
 11
17.0009
 21
43.5487
 31
0.0
  0
LINE
  8
0
 62
     0
 10
17.0009
 20
43.5487
 30
0.0
 11
17.0009
 21
37.7486
 31
0.0
  0
LINE
  8
0
 62
     0
 10
17.0009
 20
37.7486
 30
0.0
 11
16.2002
 21
37.7486
 31
0.0
  0
LINE
  8
0
 62
     0
 10
16.2002
 20
37.7486
 30
0.0
 11
16.2002
 21
34.6494
 31
0.0
  0
LINE
  8
0
 62
     0
 10
16.2002
 20
34.6494
 30
0.0
 11
17.0009
 21
34.6494
 31
0.0
  0
LINE
  8
0
 62
     0
 10
17.0009
 20
34.6494
 30
0.0
 11
17.0009
 21
33.6503
 31
0.0
  0
LINE
  8
0
 62
     0
 10
17.0009
 20
33.6503
 30
0.0
 11
31.0003
 21
33.6503
 31
0.0
  0
LINE
  8
0
 62
     0
 10
31.0003
 20
33.6503
 30
0.0
 11
31.0003
 21
34.6494
 31
0.0
  0
LINE
  8
0
 62
     0
 10
31.0003
 20
34.6494
 30
0.0
 11
31.801
 21
34.6494
 31
0.0
  0
LINE
  8
0
 62
     0
 10
31.801
 20
34.6494
 30
0.0
 11
31.801
 21
37.7486
 31
0.0
  0
LINE
  8
0
 62
     0
 10
31.801
 20
37.7486
 30
0.0
 11
31.0003
 21
37.7486
 31
0.0
  0
LINE
  8
0
 62
     0
 10
31.0003
 20
37.7486
 30
0.0
 11
31.0003
 21
43.5487
 31
0.0
  0
LINE
  8
0
 62
     0
 10
31.0003
 20
43.5487
 30
0.0
 11
31.801
 21
43.5487
 31
0.0
  0
LINE
  8
0
 62
     0
 10
31.801
 20
43.5487
 30
0.0
 11
31.801
 21
46.6492
 31
0.0
  0
LINE
  8
0
 62
     0
 10
31.801
 20
46.6492
 30
0.0
 11
31.0003
 21
46.6492
 31
0.0
  0
LINE
  8
0
 62
     0
 10
31.0003
 20
46.6492
 30
0.0
 11
31.0003
 21
47.6497
 31
0.0
  0
LINE
  8
0
 62
     0
 10
31.0003
 20
47.6497
 30
0.0
 11
17.0009
 21
47.6497
 31
0.0
  0
LINE
  8
0
 62
     0
 10
40.8132
 20
47.6497
 30
0.0
 11
40.8132
 21
46.6492
 31
0.0
  0
LINE
  8
0
 62
     0
 10
40.8132
 20
46.6492
 30
0.0
 11
40.0128
 21
46.6492
 31
0.0
  0
LINE
  8
0
 62
     0
 10
40.0128
 20
46.6492
 30
0.0
 11
40.0128
 21
43.5487
 31
0.0
  0
LINE
  8
0
 62
     0
 10
40.0128
 20
43.5487
 30
0.0
 11
40.8132
 21
43.5487
 31
0.0
  0
LINE
  8
0
 62
     0
 10
40.8132
 20
43.5487
 30
0.0
 11
40.8132
 21
37.7486
 31
0.0
  0
LINE
  8
0
 62
     0
 10
40.8132
 20
37.7486
 30
0.0
 11
40.0128
 21
37.7486
 31
0.0
  0
LINE
  8
0
 62
     0
 10
40.0128
 20
37.7486
 30
0.0
 11
40.0128
 21
34.6494
 31
0.0
  0
LINE
  8
0
 62
     0
 10
40.0128
 20
34.6494
 30
0.0
 11
40.8132
 21
34.6494
 31
0.0
  0
LINE
  8
0
 62
     0
 10
40.8132
 20
34.6494
 30
0.0
 11
40.8132
 21
33.6503
 31
0.0
  0
LINE
  8
0
 62
     0
 10
40.8132
 20
33.6503
 30
0.0
 11
54.8128
 21
33.6503
 31
0.0
  0
LINE
  8
0
 62
     0
 10
54.8128
 20
33.6503
 30
0.0
 11
54.8128
 21
34.6494
 31
0.0
  0
LINE
  8
0
 62
     0
 10
54.8128
 20
34.6494
 30
0.0
 11
55.6122
 21
34.6494
 31
0.0
  0
LINE
  8
0
 62
     0
 10
55.6122
 20
34.6494
 30
0.0
 11
55.6122
 21
37.7486
 31
0.0
  0
LINE
  8
0
 62
     0
 10
55.6122
 20
37.7486
 30
0.0
 11
54.8128
 21
37.7486
 31
0.0
  0
LINE
  8
0
 62
     0
 10
54.8128
 20
37.7486
 30
0.0
 11
54.8128
 21
43.5487
 31
0.0
  0
LINE
  8
0
 62
     0
 10
54.8128
 20
43.5487
 30
0.0
 11
55.6122
 21
43.5487
 31
0.0
  0
LINE
  8
0
 62
     0
 10
55.6122
 20
43.5487
 30
0.0
 11
55.6122
 21
46.6492
 31
0.0
  0
LINE
  8
0
 62
     0
 10
55.6122
 20
46.6492
 30
0.0
 11
54.8128
 21
46.6492
 31
0.0
  0
LINE
  8
0
 62
     0
 10
54.8128
 20
46.6492
 30
0.0
 11
54.8128
 21
47.6497
 31
0.0
  0
LINE
  8
0
 62
     0
 10
54.8128
 20
47.6497
 30
0.0
 11
40.8132
 21
47.6497
 31
0.0
  0
LINE
  8
0
 62
     0
 10
64.6257
 20
47.6497
 30
0.0
 11
64.6257
 21
46.6492
 31
0.0
  0
LINE
  8
0
 62
     0
 10
64.6257
 20
46.6492
 30
0.0
 11
63.8253
 21
46.6492
 31
0.0
  0
LINE
  8
0
 62
     0
 10
63.8253
 20
46.6492
 30
0.0
 11
63.8253
 21
43.5487
 31
0.0
  0
LINE
  8
0
 62
     0
 10
63.8253
 20
43.5487
 30
0.0
 11
64.6257
 21
43.5487
 31
0.0
  0
LINE
  8
0
 62
     0
 10
64.6257
 20
43.5487
 30
0.0
 11
64.6257
 21
37.7486
 31
0.0
  0
LINE
  8
0
 62
     0
 10
64.6257
 20
37.7486
 30
0.0
 11
63.8253
 21
37.7486
 31
0.0
  0
LINE
  8
0
 62
     0
 10
63.8253
 20
37.7486
 30
0.0
 11
63.8253
 21
34.6494
 31
0.0
  0
LINE
  8
0
 62
     0
 10
63.8253
 20
34.6494
 30
0.0
 11
64.6257
 21
34.6494
 31
0.0
  0
LINE
  8
0
 62
     0
 10
64.6257
 20
34.6494
 30
0.0
 11
64.6257
 21
33.6503
 31
0.0
  0
LINE
  8
0
 62
     0
 10
64.6257
 20
33.6503
 30
0.0
 11
78.6253
 21
33.6503
 31
0.0
  0
LINE
  8
0
 62
     0
 10
78.6253
 20
33.6503
 30
0.0
 11
78.6253
 21
34.6494
 31
0.0
  0
LINE
  8
0
 62
     0
 10
78.6253
 20
34.6494
 30
0.0
 11
79.4262
 21
34.6494
 31
0.0
  0
LINE
  8
0
 62
     0
 10
79.4262
 20
34.6494
 30
0.0
 11
79.4262
 21
37.7486
 31
0.0
  0
LINE
  8
0
 62
     0
 10
79.4262
 20
37.7486
 30
0.0
 11
78.6253
 21
37.7486
 31
0.0
  0
LINE
  8
0
 62
     0
 10
78.6253
 20
37.7486
 30
0.0
 11
78.6253
 21
43.5487
 31
0.0
  0
LINE
  8
0
 62
     0
 10
78.6253
 20
43.5487
 30
0.0
 11
79.4262
 21
43.5487
 31
0.0
  0
LINE
  8
0
 62
     0
 10
79.4262
 20
43.5487
 30
0.0
 11
79.4262
 21
46.6492
 31
0.0
  0
LINE
  8
0
 62
     0
 10
79.4262
 20
46.6492
 30
0.0
 11
78.6253
 21
46.6492
 31
0.0
  0
LINE
  8
0
 62
     0
 10
78.6253
 20
46.6492
 30
0.0
 11
78.6253
 21
47.6497
 31
0.0
  0
LINE
  8
0
 62
     0
 10
78.6253
 20
47.6497
 30
0.0
 11
64.6257
 21
47.6497
 31
0.0
  0
LINE
  8
0
 62
     0
 10
207.501
 20
47.6497
 30
0.0
 11
207.501
 21
46.6492
 31
0.0
  0
LINE
  8
0
 62
     0
 10
207.501
 20
46.6492
 30
0.0
 11
206.7
 21
46.6492
 31
0.0
  0
LINE
  8
0
 62
     0
 10
206.7
 20
46.6492
 30
0.0
 11
206.7
 21
43.5487
 31
0.0
  0
LINE
  8
0
 62
     0
 10
206.7
 20
43.5487
 30
0.0
 11
207.501
 21
43.5487
 31
0.0
  0
LINE
  8
0
 62
     0
 10
207.501
 20
43.5487
 30
0.0
 11
207.501
 21
37.7486
 31
0.0
  0
LINE
  8
0
 62
     0
 10
207.501
 20
37.7486
 30
0.0
 11
206.7
 21
37.7486
 31
0.0
  0
LINE
  8
0
 62
     0
 10
206.7
 20
37.7486
 30
0.0
 11
206.7
 21
34.6494
 31
0.0
  0
LINE
  8
0
 62
     0
 10
206.7
 20
34.6494
 30
0.0
 11
207.501
 21
34.6494
 31
0.0
  0
LINE
  8
0
 62
     0
 10
207.501
 20
34.6494
 30
0.0
 11
207.501
 21
33.6503
 31
0.0
  0
LINE
  8
0
 62
     0
 10
207.501
 20
33.6503
 30
0.0
 11
221.5
 21
33.6503
 31
0.0
  0
LINE
  8
0
 62
     0
 10
221.5
 20
33.6503
 30
0.0
 11
221.5
 21
34.6494
 31
0.0
  0
LINE
  8
0
 62
     0
 10
221.5
 20
34.6494
 30
0.0
 11
222.301
 21
34.6494
 31
0.0
  0
LINE
  8
0
 62
     0
 10
222.301
 20
34.6494
 30
0.0
 11
222.301
 21
37.7486
 31
0.0
  0
LINE
  8
0
 62
     0
 10
222.301
 20
37.7486
 30
0.0
 11
221.5
 21
37.7486
 31
0.0
  0
LINE
  8
0
 62
     0
 10
221.5
 20
37.7486
 30
0.0
 11
221.5
 21
43.5487
 31
0.0
  0
LINE
  8
0
 62
     0
 10
221.5
 20
43.5487
 30
0.0
 11
222.301
 21
43.5487
 31
0.0
  0
LINE
  8
0
 62
     0
 10
222.301
 20
43.5487
 30
0.0
 11
222.301
 21
46.6492
 31
0.0
  0
LINE
  8
0
 62
     0
 10
222.301
 20
46.6492
 30
0.0
 11
221.5
 21
46.6492
 31
0.0
  0
LINE
  8
0
 62
     0
 10
221.5
 20
46.6492
 30
0.0
 11
221.5
 21
47.6497
 31
0.0
  0
LINE
  8
0
 62
     0
 10
221.5
 20
47.6497
 30
0.0
 11
207.501
 21
47.6497
 31
0.0
  0
LINE
  8
0
 62
     0
 10
231.313
 20
47.6497
 30
0.0
 11
231.313
 21
46.6492
 31
0.0
  0
LINE
  8
0
 62
     0
 10
231.313
 20
46.6492
 30
0.0
 11
230.513
 21
46.6492
 31
0.0
  0
LINE
  8
0
 62
     0
 10
230.513
 20
46.6492
 30
0.0
 11
230.513
 21
43.5487
 31
0.0
  0
LINE
  8
0
 62
     0
 10
230.513
 20
43.5487
 30
0.0
 11
231.313
 21
43.5487
 31
0.0
  0
LINE
  8
0
 62
     0
 10
231.313
 20
43.5487
 30
0.0
 11
231.313
 21
37.7486
 31
0.0
  0
LINE
  8
0
 62
     0
 10
231.313
 20
37.7486
 30
0.0
 11
230.513
 21
37.7486
 31
0.0
  0
LINE
  8
0
 62
     0
 10
230.513
 20
37.7486
 30
0.0
 11
230.513
 21
34.6494
 31
0.0
  0
LINE
  8
0
 62
     0
 10
230.513
 20
34.6494
 30
0.0
 11
231.313
 21
34.6494
 31
0.0
  0
LINE
  8
0
 62
     0
 10
231.313
 20
34.6494
 30
0.0
 11
231.313
 21
33.6503
 31
0.0
  0
LINE
  8
0
 62
     0
 10
231.313
 20
33.6503
 30
0.0
 11
245.313
 21
33.6503
 31
0.0
  0
LINE
  8
0
 62
     0
 10
245.313
 20
33.6503
 30
0.0
 11
245.313
 21
34.6494
 31
0.0
  0
LINE
  8
0
 62
     0
 10
245.313
 20
34.6494
 30
0.0
 11
246.112
 21
34.6494
 31
0.0
  0
LINE
  8
0
 62
     0
 10
246.112
 20
34.6494
 30
0.0
 11
246.112
 21
37.7486
 31
0.0
  0
LINE
  8
0
 62
     0
 10
246.112
 20
37.7486
 30
0.0
 11
245.313
 21
37.7486
 31
0.0
  0
LINE
  8
0
 62
     0
 10
245.313
 20
37.7486
 30
0.0
 11
245.313
 21
43.5487
 31
0.0
  0
LINE
  8
0
 62
     0
 10
245.313
 20
43.5487
 30
0.0
 11
246.112
 21
43.5487
 31
0.0
  0
LINE
  8
0
 62
     0
 10
246.112
 20
43.5487
 30
0.0
 11
246.112
 21
46.6492
 31
0.0
  0
LINE
  8
0
 62
     0
 10
246.112
 20
46.6492
 30
0.0
 11
245.313
 21
46.6492
 31
0.0
  0
LINE
  8
0
 62
     0
 10
245.313
 20
46.6492
 30
0.0
 11
245.313
 21
47.6497
 31
0.0
  0
LINE
  8
0
 62
     0
 10
245.313
 20
47.6497
 30
0.0
 11
231.313
 21
47.6497
 31
0.0
  0
LINE
  8
0
 62
     0
 10
255.126
 20
47.6497
 30
0.0
 11
255.126
 21
46.6492
 31
0.0
  0
LINE
  8
0
 62
     0
 10
255.126
 20
46.6492
 30
0.0
 11
254.325
 21
46.6492
 31
0.0
  0
LINE
  8
0
 62
     0
 10
254.325
 20
46.6492
 30
0.0
 11
254.325
 21
43.5487
 31
0.0
  0
LINE
  8
0
 62
     0
 10
254.325
 20
43.5487
 30
0.0
 11
255.126
 21
43.5487
 31
0.0
  0
LINE
  8
0
 62
     0
 10
255.126
 20
43.5487
 30
0.0
 11
255.126
 21
37.7486
 31
0.0
  0
LINE
  8
0
 62
     0
 10
255.126
 20
37.7486
 30
0.0
 11
254.325
 21
37.7486
 31
0.0
  0
LINE
  8
0
 62
     0
 10
254.325
 20
37.7486
 30
0.0
 11
254.325
 21
34.6494
 31
0.0
  0
LINE
  8
0
 62
     0
 10
254.325
 20
34.6494
 30
0.0
 11
255.126
 21
34.6494
 31
0.0
  0
LINE
  8
0
 62
     0
 10
255.126
 20
34.6494
 30
0.0
 11
255.126
 21
33.6503
 31
0.0
  0
LINE
  8
0
 62
     0
 10
255.126
 20
33.6503
 30
0.0
 11
269.125
 21
33.6503
 31
0.0
  0
LINE
  8
0
 62
     0
 10
269.125
 20
33.6503
 30
0.0
 11
269.125
 21
34.6494
 31
0.0
  0
LINE
  8
0
 62
     0
 10
269.125
 20
34.6494
 30
0.0
 11
269.926
 21
34.6494
 31
0.0
  0
LINE
  8
0
 62
     0
 10
269.926
 20
34.6494
 30
0.0
 11
269.926
 21
37.7486
 31
0.0
  0
LINE
  8
0
 62
     0
 10
269.926
 20
37.7486
 30
0.0
 11
269.125
 21
37.7486
 31
0.0
  0
LINE
  8
0
 62
     0
 10
269.125
 20
37.7486
 30
0.0
 11
269.125
 21
43.5487
 31
0.0
  0
LINE
  8
0
 62
     0
 10
269.125
 20
43.5487
 30
0.0
 11
269.926
 21
43.5487
 31
0.0
  0
LINE
  8
0
 62
     0
 10
269.926
 20
43.5487
 30
0.0
 11
269.926
 21
46.6492
 31
0.0
  0
LINE
  8
0
 62
     0
 10
269.926
 20
46.6492
 30
0.0
 11
269.125
 21
46.6492
 31
0.0
  0
LINE
  8
0
 62
     0
 10
269.125
 20
46.6492
 30
0.0
 11
269.125
 21
47.6497
 31
0.0
  0
LINE
  8
0
 62
     0
 10
269.125
 20
47.6497
 30
0.0
 11
255.126
 21
47.6497
 31
0.0
  0
LINE
  8
0
 62
     0
 10
278.938
 20
47.6497
 30
0.0
 11
278.938
 21
46.6492
 31
0.0
  0
LINE
  8
0
 62
     0
 10
278.938
 20
46.6492
 30
0.0
 11
278.138
 21
46.6492
 31
0.0
  0
LINE
  8
0
 62
     0
 10
278.138
 20
46.6492
 30
0.0
 11
278.138
 21
43.5487
 31
0.0
  0
LINE
  8
0
 62
     0
 10
278.138
 20
43.5487
 30
0.0
 11
278.938
 21
43.5487
 31
0.0
  0
LINE
  8
0
 62
     0
 10
278.938
 20
43.5487
 30
0.0
 11
278.938
 21
37.7486
 31
0.0
  0
LINE
  8
0
 62
     0
 10
278.938
 20
37.7486
 30
0.0
 11
278.138
 21
37.7486
 31
0.0
  0
LINE
  8
0
 62
     0
 10
278.138
 20
37.7486
 30
0.0
 11
278.138
 21
34.6494
 31
0.0
  0
LINE
  8
0
 62
     0
 10
278.138
 20
34.6494
 30
0.0
 11
278.938
 21
34.6494
 31
0.0
  0
LINE
  8
0
 62
     0
 10
278.938
 20
34.6494
 30
0.0
 11
278.938
 21
33.6503
 31
0.0
  0
LINE
  8
0
 62
     0
 10
278.938
 20
33.6503
 30
0.0
 11
292.938
 21
33.6503
 31
0.0
  0
LINE
  8
0
 62
     0
 10
292.938
 20
33.6503
 30
0.0
 11
292.938
 21
34.6494
 31
0.0
  0
LINE
  8
0
 62
     0
 10
292.938
 20
34.6494
 30
0.0
 11
293.737
 21
34.6494
 31
0.0
  0
LINE
  8
0
 62
     0
 10
293.737
 20
34.6494
 30
0.0
 11
293.737
 21
37.7486
 31
0.0
  0
LINE
  8
0
 62
     0
 10
293.737
 20
37.7486
 30
0.0
 11
292.938
 21
37.7486
 31
0.0
  0
LINE
  8
0
 62
     0
 10
292.938
 20
37.7486
 30
0.0
 11
292.938
 21
43.5487
 31
0.0
  0
LINE
  8
0
 62
     0
 10
292.938
 20
43.5487
 30
0.0
 11
293.737
 21
43.5487
 31
0.0
  0
LINE
  8
0
 62
     0
 10
293.737
 20
43.5487
 30
0.0
 11
293.737
 21
46.6492
 31
0.0
  0
LINE
  8
0
 62
     0
 10
293.737
 20
46.6492
 30
0.0
 11
292.938
 21
46.6492
 31
0.0
  0
LINE
  8
0
 62
     0
 10
292.938
 20
46.6492
 30
0.0
 11
292.938
 21
47.6497
 31
0.0
  0
LINE
  8
0
 62
     0
 10
292.938
 20
47.6497
 30
0.0
 11
278.938
 21
47.6497
 31
0.0
  0
LINE
  8
0
 62
     0
 10
26.5259
 20
66.6997
 30
0.0
 11
26.5259
 21
65.6992
 31
0.0
  0
LINE
  8
0
 62
     0
 10
26.5259
 20
65.6992
 30
0.0
 11
25.7252
 21
65.6992
 31
0.0
  0
LINE
  8
0
 62
     0
 10
25.7252
 20
65.6992
 30
0.0
 11
25.7252
 21
62.5987
 31
0.0
  0
LINE
  8
0
 62
     0
 10
25.7252
 20
62.5987
 30
0.0
 11
26.5259
 21
62.5987
 31
0.0
  0
LINE
  8
0
 62
     0
 10
26.5259
 20
62.5987
 30
0.0
 11
26.5259
 21
61.9979
 31
0.0
  0
LINE
  8
0
 62
     0
 10
26.5259
 20
61.9979
 30
0.0
 11
25.0004
 21
61.9979
 31
0.0
  0
LINE
  8
0
 62
     0
 10
25.0004
 20
61.9979
 30
0.0
 11
25.0004
 21
65.2293
 31
0.0
  0
LINE
  8
0
 62
     0
 10
25.0004
 20
65.2293
 30
0.0
 11
18.2507
 21
65.2293
 31
0.0
  0
LINE
  8
0
 62
     0
 10
18.2507
 20
65.2293
 30
0.0
 11
18.2507
 21
61.9979
 31
0.0
  0
LINE
  8
0
 62
     0
 10
18.2507
 20
61.9979
 30
0.0
 11
17.4253
 21
61.9979
 31
0.0
  0
LINE
  8
0
 62
     0
 10
17.4253
 20
61.9979
 30
0.0
 11
17.4253
 21
59.1993
 31
0.0
  0
LINE
  8
0
 62
     0
 10
17.4253
 20
59.1993
 30
0.0
 11
18.2507
 21
59.1993
 31
0.0
  0
LINE
  8
0
 62
     0
 10
18.2507
 20
59.1993
 30
0.0
 11
18.2507
 21
52.9276
 31
0.0
  0
LINE
  8
0
 62
     0
 10
18.2507
 20
52.9276
 30
0.0
 11
19.976
 21
52.9276
 31
0.0
  0
LINE
  8
0
 62
     0
 10
19.976
 20
52.9276
 30
0.0
 11
19.976
 21
51.7303
 31
0.0
  0
LINE
  8
0
 62
     0
 10
19.976
 20
51.7303
 30
0.0
 11
23.2751
 21
51.7303
 31
0.0
  0
LINE
  8
0
 62
     0
 10
23.2751
 20
51.7303
 30
0.0
 11
23.2751
 21
52.9276
 31
0.0
  0
LINE
  8
0
 62
     0
 10
23.2751
 20
52.9276
 30
0.0
 11
25.0004
 21
52.9276
 31
0.0
  0
LINE
  8
0
 62
     0
 10
25.0004
 20
52.9276
 30
0.0
 11
25.0004
 21
57.398
 31
0.0
  0
LINE
  8
0
 62
     0
 10
25.0004
 20
57.398
 30
0.0
 11
26.5259
 21
57.398
 31
0.0
  0
LINE
  8
0
 62
     0
 10
26.5259
 20
57.398
 30
0.0
 11
26.5259
 21
56.7986
 31
0.0
  0
LINE
  8
0
 62
     0
 10
26.5259
 20
56.7986
 30
0.0
 11
25.7252
 21
56.7986
 31
0.0
  0
LINE
  8
0
 62
     0
 10
25.7252
 20
56.7986
 30
0.0
 11
25.7252
 21
53.6995
 31
0.0
  0
LINE
  8
0
 62
     0
 10
25.7252
 20
53.6995
 30
0.0
 11
26.5259
 21
53.6995
 31
0.0
  0
LINE
  8
0
 62
     0
 10
26.5259
 20
53.6995
 30
0.0
 11
26.5259
 21
52.7004
 31
0.0
  0
LINE
  8
0
 62
     0
 10
26.5259
 20
52.7004
 30
0.0
 11
40.5253
 21
52.7004
 31
0.0
  0
LINE
  8
0
 62
     0
 10
40.5253
 20
52.7004
 30
0.0
 11
40.5253
 21
53.6995
 31
0.0
  0
LINE
  8
0
 62
     0
 10
40.5253
 20
53.6995
 30
0.0
 11
41.3262
 21
53.6995
 31
0.0
  0
LINE
  8
0
 62
     0
 10
41.3262
 20
53.6995
 30
0.0
 11
41.3262
 21
56.7986
 31
0.0
  0
LINE
  8
0
 62
     0
 10
41.3262
 20
56.7986
 30
0.0
 11
40.5253
 21
56.7986
 31
0.0
  0
LINE
  8
0
 62
     0
 10
40.5253
 20
56.7986
 30
0.0
 11
40.5253
 21
57.398
 31
0.0
  0
LINE
  8
0
 62
     0
 10
40.5253
 20
57.398
 30
0.0
 11
42.0508
 21
57.398
 31
0.0
  0
LINE
  8
0
 62
     0
 10
42.0508
 20
57.398
 30
0.0
 11
42.0508
 21
52.9276
 31
0.0
  0
LINE
  8
0
 62
     0
 10
42.0508
 20
52.9276
 30
0.0
 11
43.7762
 21
52.9276
 31
0.0
  0
LINE
  8
0
 62
     0
 10
43.7762
 20
52.9276
 30
0.0
 11
43.7762
 21
51.7303
 31
0.0
  0
LINE
  8
0
 62
     0
 10
43.7762
 20
51.7303
 30
0.0
 11
47.075
 21
51.7303
 31
0.0
  0
LINE
  8
0
 62
     0
 10
47.075
 20
51.7303
 30
0.0
 11
47.075
 21
52.9276
 31
0.0
  0
LINE
  8
0
 62
     0
 10
47.075
 20
52.9276
 30
0.0
 11
48.8005
 21
52.9276
 31
0.0
  0
LINE
  8
0
 62
     0
 10
48.8005
 20
52.9276
 30
0.0
 11
48.8005
 21
59.1993
 31
0.0
  0
LINE
  8
0
 62
     0
 10
48.8005
 20
59.1993
 30
0.0
 11
49.626
 21
59.1993
 31
0.0
  0
LINE
  8
0
 62
     0
 10
49.626
 20
59.1993
 30
0.0
 11
49.626
 21
61.9979
 31
0.0
  0
LINE
  8
0
 62
     0
 10
49.626
 20
61.9979
 30
0.0
 11
48.8005
 21
61.9979
 31
0.0
  0
LINE
  8
0
 62
     0
 10
48.8005
 20
61.9979
 30
0.0
 11
48.8005
 21
65.2293
 31
0.0
  0
LINE
  8
0
 62
     0
 10
48.8005
 20
65.2293
 30
0.0
 11
42.0508
 21
65.2293
 31
0.0
  0
LINE
  8
0
 62
     0
 10
42.0508
 20
65.2293
 30
0.0
 11
42.0508
 21
61.9979
 31
0.0
  0
LINE
  8
0
 62
     0
 10
42.0508
 20
61.9979
 30
0.0
 11
40.5253
 21
61.9979
 31
0.0
  0
LINE
  8
0
 62
     0
 10
40.5253
 20
61.9979
 30
0.0
 11
40.5253
 21
62.5987
 31
0.0
  0
LINE
  8
0
 62
     0
 10
40.5253
 20
62.5987
 30
0.0
 11
41.3262
 21
62.5987
 31
0.0
  0
LINE
  8
0
 62
     0
 10
41.3262
 20
62.5987
 30
0.0
 11
41.3262
 21
65.6992
 31
0.0
  0
LINE
  8
0
 62
     0
 10
41.3262
 20
65.6992
 30
0.0
 11
40.5253
 21
65.6992
 31
0.0
  0
LINE
  8
0
 62
     0
 10
40.5253
 20
65.6992
 30
0.0
 11
40.5253
 21
66.6997
 31
0.0
  0
LINE
  8
0
 62
     0
 10
40.5253
 20
66.6997
 30
0.0
 11
26.5259
 21
66.6997
 31
0.0
  0
LINE
  8
0
 62
     0
 10
264.651
 20
66.6997
 30
0.0
 11
264.651
 21
65.6992
 31
0.0
  0
LINE
  8
0
 62
     0
 10
264.651
 20
65.6992
 30
0.0
 11
263.85
 21
65.6992
 31
0.0
  0
LINE
  8
0
 62
     0
 10
263.85
 20
65.6992
 30
0.0
 11
263.85
 21
62.5987
 31
0.0
  0
LINE
  8
0
 62
     0
 10
263.85
 20
62.5987
 30
0.0
 11
264.651
 21
62.5987
 31
0.0
  0
LINE
  8
0
 62
     0
 10
264.651
 20
62.5987
 30
0.0
 11
264.651
 21
61.9979
 31
0.0
  0
LINE
  8
0
 62
     0
 10
264.651
 20
61.9979
 30
0.0
 11
263.125
 21
61.9979
 31
0.0
  0
LINE
  8
0
 62
     0
 10
263.125
 20
61.9979
 30
0.0
 11
263.125
 21
65.2293
 31
0.0
  0
LINE
  8
0
 62
     0
 10
263.125
 20
65.2293
 30
0.0
 11
256.376
 21
65.2293
 31
0.0
  0
LINE
  8
0
 62
     0
 10
256.376
 20
65.2293
 30
0.0
 11
256.376
 21
61.9979
 31
0.0
  0
LINE
  8
0
 62
     0
 10
256.376
 20
61.9979
 30
0.0
 11
255.55
 21
61.9979
 31
0.0
  0
LINE
  8
0
 62
     0
 10
255.55
 20
61.9979
 30
0.0
 11
255.55
 21
59.1993
 31
0.0
  0
LINE
  8
0
 62
     0
 10
255.55
 20
59.1993
 30
0.0
 11
256.376
 21
59.1993
 31
0.0
  0
LINE
  8
0
 62
     0
 10
256.376
 20
59.1993
 30
0.0
 11
256.376
 21
52.9276
 31
0.0
  0
LINE
  8
0
 62
     0
 10
256.376
 20
52.9276
 30
0.0
 11
258.101
 21
52.9276
 31
0.0
  0
LINE
  8
0
 62
     0
 10
258.101
 20
52.9276
 30
0.0
 11
258.101
 21
51.7303
 31
0.0
  0
LINE
  8
0
 62
     0
 10
258.101
 20
51.7303
 30
0.0
 11
261.401
 21
51.7303
 31
0.0
  0
LINE
  8
0
 62
     0
 10
261.401
 20
51.7303
 30
0.0
 11
261.401
 21
52.9276
 31
0.0
  0
LINE
  8
0
 62
     0
 10
261.401
 20
52.9276
 30
0.0
 11
263.125
 21
52.9276
 31
0.0
  0
LINE
  8
0
 62
     0
 10
263.125
 20
52.9276
 30
0.0
 11
263.125
 21
57.398
 31
0.0
  0
LINE
  8
0
 62
     0
 10
263.125
 20
57.398
 30
0.0
 11
264.651
 21
57.398
 31
0.0
  0
LINE
  8
0
 62
     0
 10
264.651
 20
57.398
 30
0.0
 11
264.651
 21
56.7986
 31
0.0
  0
LINE
  8
0
 62
     0
 10
264.651
 20
56.7986
 30
0.0
 11
263.85
 21
56.7986
 31
0.0
  0
LINE
  8
0
 62
     0
 10
263.85
 20
56.7986
 30
0.0
 11
263.85
 21
53.6995
 31
0.0
  0
LINE
  8
0
 62
     0
 10
263.85
 20
53.6995
 30
0.0
 11
264.651
 21
53.6995
 31
0.0
  0
LINE
  8
0
 62
     0
 10
264.651
 20
53.6995
 30
0.0
 11
264.651
 21
52.7004
 31
0.0
  0
LINE
  8
0
 62
     0
 10
264.651
 20
52.7004
 30
0.0
 11
278.65
 21
52.7004
 31
0.0
  0
LINE
  8
0
 62
     0
 10
278.65
 20
52.7004
 30
0.0
 11
278.65
 21
53.6995
 31
0.0
  0
LINE
  8
0
 62
     0
 10
278.65
 20
53.6995
 30
0.0
 11
279.451
 21
53.6995
 31
0.0
  0
LINE
  8
0
 62
     0
 10
279.451
 20
53.6995
 30
0.0
 11
279.451
 21
56.7986
 31
0.0
  0
LINE
  8
0
 62
     0
 10
279.451
 20
56.7986
 30
0.0
 11
278.65
 21
56.7986
 31
0.0
  0
LINE
  8
0
 62
     0
 10
278.65
 20
56.7986
 30
0.0
 11
278.65
 21
57.398
 31
0.0
  0
LINE
  8
0
 62
     0
 10
278.65
 20
57.398
 30
0.0
 11
280.176
 21
57.398
 31
0.0
  0
LINE
  8
0
 62
     0
 10
280.176
 20
57.398
 30
0.0
 11
280.176
 21
52.9276
 31
0.0
  0
LINE
  8
0
 62
     0
 10
280.176
 20
52.9276
 30
0.0
 11
281.901
 21
52.9276
 31
0.0
  0
LINE
  8
0
 62
     0
 10
281.901
 20
52.9276
 30
0.0
 11
281.901
 21
51.7303
 31
0.0
  0
LINE
  8
0
 62
     0
 10
281.901
 20
51.7303
 30
0.0
 11
285.2
 21
51.7303
 31
0.0
  0
LINE
  8
0
 62
     0
 10
285.2
 20
51.7303
 30
0.0
 11
285.2
 21
52.9276
 31
0.0
  0
LINE
  8
0
 62
     0
 10
285.2
 20
52.9276
 30
0.0
 11
286.925
 21
52.9276
 31
0.0
  0
LINE
  8
0
 62
     0
 10
286.925
 20
52.9276
 30
0.0
 11
286.925
 21
59.1993
 31
0.0
  0
LINE
  8
0
 62
     0
 10
286.925
 20
59.1993
 30
0.0
 11
287.751
 21
59.1993
 31
0.0
  0
LINE
  8
0
 62
     0
 10
287.751
 20
59.1993
 30
0.0
 11
287.751
 21
61.9979
 31
0.0
  0
LINE
  8
0
 62
     0
 10
287.751
 20
61.9979
 30
0.0
 11
286.925
 21
61.9979
 31
0.0
  0
LINE
  8
0
 62
     0
 10
286.925
 20
61.9979
 30
0.0
 11
286.925
 21
65.2293
 31
0.0
  0
LINE
  8
0
 62
     0
 10
286.925
 20
65.2293
 30
0.0
 11
280.176
 21
65.2293
 31
0.0
  0
LINE
  8
0
 62
     0
 10
280.176
 20
65.2293
 30
0.0
 11
280.176
 21
61.9979
 31
0.0
  0
LINE
  8
0
 62
     0
 10
280.176
 20
61.9979
 30
0.0
 11
278.65
 21
61.9979
 31
0.0
  0
LINE
  8
0
 62
     0
 10
278.65
 20
61.9979
 30
0.0
 11
278.65
 21
62.5987
 31
0.0
  0
LINE
  8
0
 62
     0
 10
278.65
 20
62.5987
 30
0.0
 11
279.451
 21
62.5987
 31
0.0
  0
LINE
  8
0
 62
     0
 10
279.451
 20
62.5987
 30
0.0
 11
279.451
 21
65.6992
 31
0.0
  0
LINE
  8
0
 62
     0
 10
279.451
 20
65.6992
 30
0.0
 11
278.65
 21
65.6992
 31
0.0
  0
LINE
  8
0
 62
     0
 10
278.65
 20
65.6992
 30
0.0
 11
278.65
 21
66.6997
 31
0.0
  0
LINE
  8
0
 62
     0
 10
278.65
 20
66.6997
 30
0.0
 11
264.651
 21
66.6997
 31
0.0
  0
LINE
  8
0
 62
     0
 10
57.482
 20
66.6997
 30
0.0
 11
57.482
 21
65.6992
 31
0.0
  0
LINE
  8
0
 62
     0
 10
57.482
 20
65.6992
 30
0.0
 11
56.6815
 21
65.6992
 31
0.0
  0
LINE
  8
0
 62
     0
 10
56.6815
 20
65.6992
 30
0.0
 11
56.6815
 21
62.5987
 31
0.0
  0
LINE
  8
0
 62
     0
 10
56.6815
 20
62.5987
 30
0.0
 11
57.482
 21
62.5987
 31
0.0
  0
LINE
  8
0
 62
     0
 10
57.482
 20
62.5987
 30
0.0
 11
57.482
 21
56.7986
 31
0.0
  0
LINE
  8
0
 62
     0
 10
57.482
 20
56.7986
 30
0.0
 11
56.6815
 21
56.7986
 31
0.0
  0
LINE
  8
0
 62
     0
 10
56.6815
 20
56.7986
 30
0.0
 11
56.6815
 21
53.6995
 31
0.0
  0
LINE
  8
0
 62
     0
 10
56.6815
 20
53.6995
 30
0.0
 11
57.482
 21
53.6995
 31
0.0
  0
LINE
  8
0
 62
     0
 10
57.482
 20
53.6995
 30
0.0
 11
57.482
 21
52.7004
 31
0.0
  0
LINE
  8
0
 62
     0
 10
57.482
 20
52.7004
 30
0.0
 11
71.4816
 21
52.7004
 31
0.0
  0
LINE
  8
0
 62
     0
 10
71.4816
 20
52.7004
 30
0.0
 11
71.4816
 21
53.6995
 31
0.0
  0
LINE
  8
0
 62
     0
 10
71.4816
 20
53.6995
 30
0.0
 11
72.2824
 21
53.6995
 31
0.0
  0
LINE
  8
0
 62
     0
 10
72.2824
 20
53.6995
 30
0.0
 11
72.2824
 21
56.7986
 31
0.0
  0
LINE
  8
0
 62
     0
 10
72.2824
 20
56.7986
 30
0.0
 11
71.4816
 21
56.7986
 31
0.0
  0
LINE
  8
0
 62
     0
 10
71.4816
 20
56.7986
 30
0.0
 11
71.4816
 21
62.5987
 31
0.0
  0
LINE
  8
0
 62
     0
 10
71.4816
 20
62.5987
 30
0.0
 11
72.2824
 21
62.5987
 31
0.0
  0
LINE
  8
0
 62
     0
 10
72.2824
 20
62.5987
 30
0.0
 11
72.2824
 21
65.6992
 31
0.0
  0
LINE
  8
0
 62
     0
 10
72.2824
 20
65.6992
 30
0.0
 11
71.4816
 21
65.6992
 31
0.0
  0
LINE
  8
0
 62
     0
 10
71.4816
 20
65.6992
 30
0.0
 11
71.4816
 21
66.6997
 31
0.0
  0
LINE
  8
0
 62
     0
 10
71.4816
 20
66.6997
 30
0.0
 11
57.482
 21
66.6997
 31
0.0
  0
LINE
  8
0
 62
     0
 10
76.532
 20
66.6997
 30
0.0
 11
76.532
 21
65.6992
 31
0.0
  0
LINE
  8
0
 62
     0
 10
76.532
 20
65.6992
 30
0.0
 11
75.7315
 21
65.6992
 31
0.0
  0
LINE
  8
0
 62
     0
 10
75.7315
 20
65.6992
 30
0.0
 11
75.7315
 21
62.5987
 31
0.0
  0
LINE
  8
0
 62
     0
 10
75.7315
 20
62.5987
 30
0.0
 11
76.532
 21
62.5987
 31
0.0
  0
LINE
  8
0
 62
     0
 10
76.532
 20
62.5987
 30
0.0
 11
76.532
 21
56.7986
 31
0.0
  0
LINE
  8
0
 62
     0
 10
76.532
 20
56.7986
 30
0.0
 11
75.7315
 21
56.7986
 31
0.0
  0
LINE
  8
0
 62
     0
 10
75.7315
 20
56.7986
 30
0.0
 11
75.7315
 21
53.6995
 31
0.0
  0
LINE
  8
0
 62
     0
 10
75.7315
 20
53.6995
 30
0.0
 11
76.532
 21
53.6995
 31
0.0
  0
LINE
  8
0
 62
     0
 10
76.532
 20
53.6995
 30
0.0
 11
76.532
 21
52.7004
 31
0.0
  0
LINE
  8
0
 62
     0
 10
76.532
 20
52.7004
 30
0.0
 11
90.5316
 21
52.7004
 31
0.0
  0
LINE
  8
0
 62
     0
 10
90.5316
 20
52.7004
 30
0.0
 11
90.5316
 21
53.6995
 31
0.0
  0
LINE
  8
0
 62
     0
 10
90.5316
 20
53.6995
 30
0.0
 11
91.3324
 21
53.6995
 31
0.0
  0
LINE
  8
0
 62
     0
 10
91.3324
 20
53.6995
 30
0.0
 11
91.3324
 21
56.7986
 31
0.0
  0
LINE
  8
0
 62
     0
 10
91.3324
 20
56.7986
 30
0.0
 11
90.5316
 21
56.7986
 31
0.0
  0
LINE
  8
0
 62
     0
 10
90.5316
 20
56.7986
 30
0.0
 11
90.5316
 21
62.5987
 31
0.0
  0
LINE
  8
0
 62
     0
 10
90.5316
 20
62.5987
 30
0.0
 11
91.3324
 21
62.5987
 31
0.0
  0
LINE
  8
0
 62
     0
 10
91.3324
 20
62.5987
 30
0.0
 11
91.3324
 21
65.6992
 31
0.0
  0
LINE
  8
0
 62
     0
 10
91.3324
 20
65.6992
 30
0.0
 11
90.5316
 21
65.6992
 31
0.0
  0
LINE
  8
0
 62
     0
 10
90.5316
 20
65.6992
 30
0.0
 11
90.5316
 21
66.6997
 31
0.0
  0
LINE
  8
0
 62
     0
 10
90.5316
 20
66.6997
 30
0.0
 11
76.532
 21
66.6997
 31
0.0
  0
LINE
  8
0
 62
     0
 10
95.582
 20
66.6997
 30
0.0
 11
95.582
 21
65.6992
 31
0.0
  0
LINE
  8
0
 62
     0
 10
95.582
 20
65.6992
 30
0.0
 11
94.7815
 21
65.6992
 31
0.0
  0
LINE
  8
0
 62
     0
 10
94.7815
 20
65.6992
 30
0.0
 11
94.7815
 21
62.5987
 31
0.0
  0
LINE
  8
0
 62
     0
 10
94.7815
 20
62.5987
 30
0.0
 11
95.582
 21
62.5987
 31
0.0
  0
LINE
  8
0
 62
     0
 10
95.582
 20
62.5987
 30
0.0
 11
95.582
 21
56.7986
 31
0.0
  0
LINE
  8
0
 62
     0
 10
95.582
 20
56.7986
 30
0.0
 11
94.7815
 21
56.7986
 31
0.0
  0
LINE
  8
0
 62
     0
 10
94.7815
 20
56.7986
 30
0.0
 11
94.7815
 21
53.6995
 31
0.0
  0
LINE
  8
0
 62
     0
 10
94.7815
 20
53.6995
 30
0.0
 11
95.582
 21
53.6995
 31
0.0
  0
LINE
  8
0
 62
     0
 10
95.582
 20
53.6995
 30
0.0
 11
95.582
 21
52.7004
 31
0.0
  0
LINE
  8
0
 62
     0
 10
95.582
 20
52.7004
 30
0.0
 11
109.582
 21
52.7004
 31
0.0
  0
LINE
  8
0
 62
     0
 10
109.582
 20
52.7004
 30
0.0
 11
109.582
 21
53.6995
 31
0.0
  0
LINE
  8
0
 62
     0
 10
109.582
 20
53.6995
 30
0.0
 11
110.382
 21
53.6995
 31
0.0
  0
LINE
  8
0
 62
     0
 10
110.382
 20
53.6995
 30
0.0
 11
110.382
 21
56.7986
 31
0.0
  0
LINE
  8
0
 62
     0
 10
110.382
 20
56.7986
 30
0.0
 11
109.582
 21
56.7986
 31
0.0
  0
LINE
  8
0
 62
     0
 10
109.582
 20
56.7986
 30
0.0
 11
109.582
 21
62.5987
 31
0.0
  0
LINE
  8
0
 62
     0
 10
109.582
 20
62.5987
 30
0.0
 11
110.382
 21
62.5987
 31
0.0
  0
LINE
  8
0
 62
     0
 10
110.382
 20
62.5987
 30
0.0
 11
110.382
 21
65.6992
 31
0.0
  0
LINE
  8
0
 62
     0
 10
110.382
 20
65.6992
 30
0.0
 11
109.582
 21
65.6992
 31
0.0
  0
LINE
  8
0
 62
     0
 10
109.582
 20
65.6992
 30
0.0
 11
109.582
 21
66.6997
 31
0.0
  0
LINE
  8
0
 62
     0
 10
109.582
 20
66.6997
 30
0.0
 11
95.582
 21
66.6997
 31
0.0
  0
LINE
  8
0
 62
     0
 10
114.632
 20
66.6997
 30
0.0
 11
114.632
 21
65.6992
 31
0.0
  0
LINE
  8
0
 62
     0
 10
114.632
 20
65.6992
 30
0.0
 11
113.832
 21
65.6992
 31
0.0
  0
LINE
  8
0
 62
     0
 10
113.832
 20
65.6992
 30
0.0
 11
113.832
 21
62.5987
 31
0.0
  0
LINE
  8
0
 62
     0
 10
113.832
 20
62.5987
 30
0.0
 11
114.632
 21
62.5987
 31
0.0
  0
LINE
  8
0
 62
     0
 10
114.632
 20
62.5987
 30
0.0
 11
114.632
 21
56.7986
 31
0.0
  0
LINE
  8
0
 62
     0
 10
114.632
 20
56.7986
 30
0.0
 11
113.832
 21
56.7986
 31
0.0
  0
LINE
  8
0
 62
     0
 10
113.832
 20
56.7986
 30
0.0
 11
113.832
 21
53.6995
 31
0.0
  0
LINE
  8
0
 62
     0
 10
113.832
 20
53.6995
 30
0.0
 11
114.632
 21
53.6995
 31
0.0
  0
LINE
  8
0
 62
     0
 10
114.632
 20
53.6995
 30
0.0
 11
114.632
 21
52.7004
 31
0.0
  0
LINE
  8
0
 62
     0
 10
114.632
 20
52.7004
 30
0.0
 11
128.632
 21
52.7004
 31
0.0
  0
LINE
  8
0
 62
     0
 10
128.632
 20
52.7004
 30
0.0
 11
128.632
 21
53.6995
 31
0.0
  0
LINE
  8
0
 62
     0
 10
128.632
 20
53.6995
 30
0.0
 11
129.432
 21
53.6995
 31
0.0
  0
LINE
  8
0
 62
     0
 10
129.432
 20
53.6995
 30
0.0
 11
129.432
 21
56.7986
 31
0.0
  0
LINE
  8
0
 62
     0
 10
129.432
 20
56.7986
 30
0.0
 11
128.632
 21
56.7986
 31
0.0
  0
LINE
  8
0
 62
     0
 10
128.632
 20
56.7986
 30
0.0
 11
128.632
 21
62.5987
 31
0.0
  0
LINE
  8
0
 62
     0
 10
128.632
 20
62.5987
 30
0.0
 11
129.432
 21
62.5987
 31
0.0
  0
LINE
  8
0
 62
     0
 10
129.432
 20
62.5987
 30
0.0
 11
129.432
 21
65.6992
 31
0.0
  0
LINE
  8
0
 62
     0
 10
129.432
 20
65.6992
 30
0.0
 11
128.632
 21
65.6992
 31
0.0
  0
LINE
  8
0
 62
     0
 10
128.632
 20
65.6992
 30
0.0
 11
128.632
 21
66.6997
 31
0.0
  0
LINE
  8
0
 62
     0
 10
128.632
 20
66.6997
 30
0.0
 11
114.632
 21
66.6997
 31
0.0
  0
LINE
  8
0
 62
     0
 10
133.682
 20
66.6997
 30
0.0
 11
133.682
 21
65.6992
 31
0.0
  0
LINE
  8
0
 62
     0
 10
133.682
 20
65.6992
 30
0.0
 11
132.882
 21
65.6992
 31
0.0
  0
LINE
  8
0
 62
     0
 10
132.882
 20
65.6992
 30
0.0
 11
132.882
 21
62.5987
 31
0.0
  0
LINE
  8
0
 62
     0
 10
132.882
 20
62.5987
 30
0.0
 11
133.682
 21
62.5987
 31
0.0
  0
LINE
  8
0
 62
     0
 10
133.682
 20
62.5987
 30
0.0
 11
133.682
 21
56.7986
 31
0.0
  0
LINE
  8
0
 62
     0
 10
133.682
 20
56.7986
 30
0.0
 11
132.882
 21
56.7986
 31
0.0
  0
LINE
  8
0
 62
     0
 10
132.882
 20
56.7986
 30
0.0
 11
132.882
 21
53.6995
 31
0.0
  0
LINE
  8
0
 62
     0
 10
132.882
 20
53.6995
 30
0.0
 11
133.682
 21
53.6995
 31
0.0
  0
LINE
  8
0
 62
     0
 10
133.682
 20
53.6995
 30
0.0
 11
133.682
 21
52.7004
 31
0.0
  0
LINE
  8
0
 62
     0
 10
133.682
 20
52.7004
 30
0.0
 11
147.682
 21
52.7004
 31
0.0
  0
LINE
  8
0
 62
     0
 10
147.682
 20
52.7004
 30
0.0
 11
147.682
 21
53.6995
 31
0.0
  0
LINE
  8
0
 62
     0
 10
147.682
 20
53.6995
 30
0.0
 11
148.482
 21
53.6995
 31
0.0
  0
LINE
  8
0
 62
     0
 10
148.482
 20
53.6995
 30
0.0
 11
148.482
 21
56.7986
 31
0.0
  0
LINE
  8
0
 62
     0
 10
148.482
 20
56.7986
 30
0.0
 11
147.682
 21
56.7986
 31
0.0
  0
LINE
  8
0
 62
     0
 10
147.682
 20
56.7986
 30
0.0
 11
147.682
 21
62.5987
 31
0.0
  0
LINE
  8
0
 62
     0
 10
147.682
 20
62.5987
 30
0.0
 11
148.482
 21
62.5987
 31
0.0
  0
LINE
  8
0
 62
     0
 10
148.482
 20
62.5987
 30
0.0
 11
148.482
 21
65.6992
 31
0.0
  0
LINE
  8
0
 62
     0
 10
148.482
 20
65.6992
 30
0.0
 11
147.682
 21
65.6992
 31
0.0
  0
LINE
  8
0
 62
     0
 10
147.682
 20
65.6992
 30
0.0
 11
147.682
 21
66.6997
 31
0.0
  0
LINE
  8
0
 62
     0
 10
147.682
 20
66.6997
 30
0.0
 11
133.682
 21
66.6997
 31
0.0
  0
LINE
  8
0
 62
     0
 10
152.732
 20
66.6997
 30
0.0
 11
152.732
 21
65.6992
 31
0.0
  0
LINE
  8
0
 62
     0
 10
152.732
 20
65.6992
 30
0.0
 11
151.932
 21
65.6992
 31
0.0
  0
LINE
  8
0
 62
     0
 10
151.932
 20
65.6992
 30
0.0
 11
151.932
 21
62.5987
 31
0.0
  0
LINE
  8
0
 62
     0
 10
151.932
 20
62.5987
 30
0.0
 11
152.732
 21
62.5987
 31
0.0
  0
LINE
  8
0
 62
     0
 10
152.732
 20
62.5987
 30
0.0
 11
152.732
 21
56.7986
 31
0.0
  0
LINE
  8
0
 62
     0
 10
152.732
 20
56.7986
 30
0.0
 11
151.932
 21
56.7986
 31
0.0
  0
LINE
  8
0
 62
     0
 10
151.932
 20
56.7986
 30
0.0
 11
151.932
 21
53.6995
 31
0.0
  0
LINE
  8
0
 62
     0
 10
151.932
 20
53.6995
 30
0.0
 11
152.732
 21
53.6995
 31
0.0
  0
LINE
  8
0
 62
     0
 10
152.732
 20
53.6995
 30
0.0
 11
152.732
 21
52.7004
 31
0.0
  0
LINE
  8
0
 62
     0
 10
152.732
 20
52.7004
 30
0.0
 11
166.732
 21
52.7004
 31
0.0
  0
LINE
  8
0
 62
     0
 10
166.732
 20
52.7004
 30
0.0
 11
166.732
 21
53.6995
 31
0.0
  0
LINE
  8
0
 62
     0
 10
166.732
 20
53.6995
 30
0.0
 11
167.532
 21
53.6995
 31
0.0
  0
LINE
  8
0
 62
     0
 10
167.532
 20
53.6995
 30
0.0
 11
167.532
 21
56.7986
 31
0.0
  0
LINE
  8
0
 62
     0
 10
167.532
 20
56.7986
 30
0.0
 11
166.732
 21
56.7986
 31
0.0
  0
LINE
  8
0
 62
     0
 10
166.732
 20
56.7986
 30
0.0
 11
166.732
 21
62.5987
 31
0.0
  0
LINE
  8
0
 62
     0
 10
166.732
 20
62.5987
 30
0.0
 11
167.532
 21
62.5987
 31
0.0
  0
LINE
  8
0
 62
     0
 10
167.532
 20
62.5987
 30
0.0
 11
167.532
 21
65.6992
 31
0.0
  0
LINE
  8
0
 62
     0
 10
167.532
 20
65.6992
 30
0.0
 11
166.732
 21
65.6992
 31
0.0
  0
LINE
  8
0
 62
     0
 10
166.732
 20
65.6992
 30
0.0
 11
166.732
 21
66.6997
 31
0.0
  0
LINE
  8
0
 62
     0
 10
166.732
 20
66.6997
 30
0.0
 11
152.732
 21
66.6997
 31
0.0
  0
LINE
  8
0
 62
     0
 10
171.782
 20
66.6997
 30
0.0
 11
171.782
 21
65.6992
 31
0.0
  0
LINE
  8
0
 62
     0
 10
171.782
 20
65.6992
 30
0.0
 11
170.982
 21
65.6992
 31
0.0
  0
LINE
  8
0
 62
     0
 10
170.982
 20
65.6992
 30
0.0
 11
170.982
 21
62.5987
 31
0.0
  0
LINE
  8
0
 62
     0
 10
170.982
 20
62.5987
 30
0.0
 11
171.782
 21
62.5987
 31
0.0
  0
LINE
  8
0
 62
     0
 10
171.782
 20
62.5987
 30
0.0
 11
171.782
 21
56.7986
 31
0.0
  0
LINE
  8
0
 62
     0
 10
171.782
 20
56.7986
 30
0.0
 11
170.982
 21
56.7986
 31
0.0
  0
LINE
  8
0
 62
     0
 10
170.982
 20
56.7986
 30
0.0
 11
170.982
 21
53.6995
 31
0.0
  0
LINE
  8
0
 62
     0
 10
170.982
 20
53.6995
 30
0.0
 11
171.782
 21
53.6995
 31
0.0
  0
LINE
  8
0
 62
     0
 10
171.782
 20
53.6995
 30
0.0
 11
171.782
 21
52.7004
 31
0.0
  0
LINE
  8
0
 62
     0
 10
171.782
 20
52.7004
 30
0.0
 11
185.782
 21
52.7004
 31
0.0
  0
LINE
  8
0
 62
     0
 10
185.782
 20
52.7004
 30
0.0
 11
185.782
 21
53.6995
 31
0.0
  0
LINE
  8
0
 62
     0
 10
185.782
 20
53.6995
 30
0.0
 11
186.582
 21
53.6995
 31
0.0
  0
LINE
  8
0
 62
     0
 10
186.582
 20
53.6995
 30
0.0
 11
186.582
 21
56.7986
 31
0.0
  0
LINE
  8
0
 62
     0
 10
186.582
 20
56.7986
 30
0.0
 11
185.782
 21
56.7986
 31
0.0
  0
LINE
  8
0
 62
     0
 10
185.782
 20
56.7986
 30
0.0
 11
185.782
 21
62.5987
 31
0.0
  0
LINE
  8
0
 62
     0
 10
185.782
 20
62.5987
 30
0.0
 11
186.582
 21
62.5987
 31
0.0
  0
LINE
  8
0
 62
     0
 10
186.582
 20
62.5987
 30
0.0
 11
186.582
 21
65.6992
 31
0.0
  0
LINE
  8
0
 62
     0
 10
186.582
 20
65.6992
 30
0.0
 11
185.782
 21
65.6992
 31
0.0
  0
LINE
  8
0
 62
     0
 10
185.782
 20
65.6992
 30
0.0
 11
185.782
 21
66.6997
 31
0.0
  0
LINE
  8
0
 62
     0
 10
185.782
 20
66.6997
 30
0.0
 11
171.782
 21
66.6997
 31
0.0
  0
LINE
  8
0
 62
     0
 10
190.832
 20
66.6997
 30
0.0
 11
190.832
 21
65.6992
 31
0.0
  0
LINE
  8
0
 62
     0
 10
190.832
 20
65.6992
 30
0.0
 11
190.032
 21
65.6992
 31
0.0
  0
LINE
  8
0
 62
     0
 10
190.032
 20
65.6992
 30
0.0
 11
190.032
 21
62.5987
 31
0.0
  0
LINE
  8
0
 62
     0
 10
190.032
 20
62.5987
 30
0.0
 11
190.832
 21
62.5987
 31
0.0
  0
LINE
  8
0
 62
     0
 10
190.832
 20
62.5987
 30
0.0
 11
190.832
 21
56.7986
 31
0.0
  0
LINE
  8
0
 62
     0
 10
190.832
 20
56.7986
 30
0.0
 11
190.032
 21
56.7986
 31
0.0
  0
LINE
  8
0
 62
     0
 10
190.032
 20
56.7986
 30
0.0
 11
190.032
 21
53.6995
 31
0.0
  0
LINE
  8
0
 62
     0
 10
190.032
 20
53.6995
 30
0.0
 11
190.832
 21
53.6995
 31
0.0
  0
LINE
  8
0
 62
     0
 10
190.832
 20
53.6995
 30
0.0
 11
190.832
 21
52.7004
 31
0.0
  0
LINE
  8
0
 62
     0
 10
190.832
 20
52.7004
 30
0.0
 11
204.832
 21
52.7004
 31
0.0
  0
LINE
  8
0
 62
     0
 10
204.832
 20
52.7004
 30
0.0
 11
204.832
 21
53.6995
 31
0.0
  0
LINE
  8
0
 62
     0
 10
204.832
 20
53.6995
 30
0.0
 11
205.632
 21
53.6995
 31
0.0
  0
LINE
  8
0
 62
     0
 10
205.632
 20
53.6995
 30
0.0
 11
205.632
 21
56.7986
 31
0.0
  0
LINE
  8
0
 62
     0
 10
205.632
 20
56.7986
 30
0.0
 11
204.832
 21
56.7986
 31
0.0
  0
LINE
  8
0
 62
     0
 10
204.832
 20
56.7986
 30
0.0
 11
204.832
 21
62.5987
 31
0.0
  0
LINE
  8
0
 62
     0
 10
204.832
 20
62.5987
 30
0.0
 11
205.632
 21
62.5987
 31
0.0
  0
LINE
  8
0
 62
     0
 10
205.632
 20
62.5987
 30
0.0
 11
205.632
 21
65.6992
 31
0.0
  0
LINE
  8
0
 62
     0
 10
205.632
 20
65.6992
 30
0.0
 11
204.832
 21
65.6992
 31
0.0
  0
LINE
  8
0
 62
     0
 10
204.832
 20
65.6992
 30
0.0
 11
204.832
 21
66.6997
 31
0.0
  0
LINE
  8
0
 62
     0
 10
204.832
 20
66.6997
 30
0.0
 11
190.832
 21
66.6997
 31
0.0
  0
LINE
  8
0
 62
     0
 10
209.882
 20
66.6997
 30
0.0
 11
209.882
 21
65.6992
 31
0.0
  0
LINE
  8
0
 62
     0
 10
209.882
 20
65.6992
 30
0.0
 11
209.082
 21
65.6992
 31
0.0
  0
LINE
  8
0
 62
     0
 10
209.082
 20
65.6992
 30
0.0
 11
209.082
 21
62.5987
 31
0.0
  0
LINE
  8
0
 62
     0
 10
209.082
 20
62.5987
 30
0.0
 11
209.882
 21
62.5987
 31
0.0
  0
LINE
  8
0
 62
     0
 10
209.882
 20
62.5987
 30
0.0
 11
209.882
 21
56.7986
 31
0.0
  0
LINE
  8
0
 62
     0
 10
209.882
 20
56.7986
 30
0.0
 11
209.082
 21
56.7986
 31
0.0
  0
LINE
  8
0
 62
     0
 10
209.082
 20
56.7986
 30
0.0
 11
209.082
 21
53.6995
 31
0.0
  0
LINE
  8
0
 62
     0
 10
209.082
 20
53.6995
 30
0.0
 11
209.882
 21
53.6995
 31
0.0
  0
LINE
  8
0
 62
     0
 10
209.882
 20
53.6995
 30
0.0
 11
209.882
 21
52.7004
 31
0.0
  0
LINE
  8
0
 62
     0
 10
209.882
 20
52.7004
 30
0.0
 11
223.882
 21
52.7004
 31
0.0
  0
LINE
  8
0
 62
     0
 10
223.882
 20
52.7004
 30
0.0
 11
223.882
 21
53.6995
 31
0.0
  0
LINE
  8
0
 62
     0
 10
223.882
 20
53.6995
 30
0.0
 11
224.682
 21
53.6995
 31
0.0
  0
LINE
  8
0
 62
     0
 10
224.682
 20
53.6995
 30
0.0
 11
224.682
 21
56.7986
 31
0.0
  0
LINE
  8
0
 62
     0
 10
224.682
 20
56.7986
 30
0.0
 11
223.882
 21
56.7986
 31
0.0
  0
LINE
  8
0
 62
     0
 10
223.882
 20
56.7986
 30
0.0
 11
223.882
 21
62.5987
 31
0.0
  0
LINE
  8
0
 62
     0
 10
223.882
 20
62.5987
 30
0.0
 11
224.682
 21
62.5987
 31
0.0
  0
LINE
  8
0
 62
     0
 10
224.682
 20
62.5987
 30
0.0
 11
224.682
 21
65.6992
 31
0.0
  0
LINE
  8
0
 62
     0
 10
224.682
 20
65.6992
 30
0.0
 11
223.882
 21
65.6992
 31
0.0
  0
LINE
  8
0
 62
     0
 10
223.882
 20
65.6992
 30
0.0
 11
223.882
 21
66.6997
 31
0.0
  0
LINE
  8
0
 62
     0
 10
223.882
 20
66.6997
 30
0.0
 11
209.882
 21
66.6997
 31
0.0
  0
LINE
  8
0
 62
     0
 10
228.932
 20
66.6997
 30
0.0
 11
228.932
 21
65.6992
 31
0.0
  0
LINE
  8
0
 62
     0
 10
228.932
 20
65.6992
 30
0.0
 11
228.132
 21
65.6992
 31
0.0
  0
LINE
  8
0
 62
     0
 10
228.132
 20
65.6992
 30
0.0
 11
228.132
 21
62.5987
 31
0.0
  0
LINE
  8
0
 62
     0
 10
228.132
 20
62.5987
 30
0.0
 11
228.932
 21
62.5987
 31
0.0
  0
LINE
  8
0
 62
     0
 10
228.932
 20
62.5987
 30
0.0
 11
228.932
 21
56.7986
 31
0.0
  0
LINE
  8
0
 62
     0
 10
228.932
 20
56.7986
 30
0.0
 11
228.132
 21
56.7986
 31
0.0
  0
LINE
  8
0
 62
     0
 10
228.132
 20
56.7986
 30
0.0
 11
228.132
 21
53.6995
 31
0.0
  0
LINE
  8
0
 62
     0
 10
228.132
 20
53.6995
 30
0.0
 11
228.932
 21
53.6995
 31
0.0
  0
LINE
  8
0
 62
     0
 10
228.932
 20
53.6995
 30
0.0
 11
228.932
 21
52.7004
 31
0.0
  0
LINE
  8
0
 62
     0
 10
228.932
 20
52.7004
 30
0.0
 11
242.932
 21
52.7004
 31
0.0
  0
LINE
  8
0
 62
     0
 10
242.932
 20
52.7004
 30
0.0
 11
242.932
 21
53.6995
 31
0.0
  0
LINE
  8
0
 62
     0
 10
242.932
 20
53.6995
 30
0.0
 11
243.732
 21
53.6995
 31
0.0
  0
LINE
  8
0
 62
     0
 10
243.732
 20
53.6995
 30
0.0
 11
243.732
 21
56.7986
 31
0.0
  0
LINE
  8
0
 62
     0
 10
243.732
 20
56.7986
 30
0.0
 11
242.932
 21
56.7986
 31
0.0
  0
LINE
  8
0
 62
     0
 10
242.932
 20
56.7986
 30
0.0
 11
242.932
 21
62.5987
 31
0.0
  0
LINE
  8
0
 62
     0
 10
242.932
 20
62.5987
 30
0.0
 11
243.732
 21
62.5987
 31
0.0
  0
LINE
  8
0
 62
     0
 10
243.732
 20
62.5987
 30
0.0
 11
243.732
 21
65.6992
 31
0.0
  0
LINE
  8
0
 62
     0
 10
243.732
 20
65.6992
 30
0.0
 11
242.932
 21
65.6992
 31
0.0
  0
LINE
  8
0
 62
     0
 10
242.932
 20
65.6992
 30
0.0
 11
242.932
 21
66.6997
 31
0.0
  0
LINE
  8
0
 62
     0
 10
242.932
 20
66.6997
 30
0.0
 11
228.932
 21
66.6997
 31
0.0
  0
LINE
  8
0
 62
     0
 10
269.413
 20
85.7497
 30
0.0
 11
269.413
 21
84.7492
 31
0.0
  0
LINE
  8
0
 62
     0
 10
269.413
 20
84.7492
 30
0.0
 11
268.613
 21
84.7492
 31
0.0
  0
LINE
  8
0
 62
     0
 10
268.613
 20
84.7492
 30
0.0
 11
268.613
 21
81.6487
 31
0.0
  0
LINE
  8
0
 62
     0
 10
268.613
 20
81.6487
 30
0.0
 11
269.413
 21
81.6487
 31
0.0
  0
LINE
  8
0
 62
     0
 10
269.413
 20
81.6487
 30
0.0
 11
269.413
 21
81.0479
 31
0.0
  0
LINE
  8
0
 62
     0
 10
269.413
 20
81.0479
 30
0.0
 11
267.888
 21
81.0479
 31
0.0
  0
LINE
  8
0
 62
     0
 10
267.888
 20
81.0479
 30
0.0
 11
267.888
 21
84.2793
 31
0.0
  0
LINE
  8
0
 62
     0
 10
267.888
 20
84.2793
 30
0.0
 11
261.138
 21
84.2793
 31
0.0
  0
LINE
  8
0
 62
     0
 10
261.138
 20
84.2793
 30
0.0
 11
261.138
 21
81.0479
 31
0.0
  0
LINE
  8
0
 62
     0
 10
261.138
 20
81.0479
 30
0.0
 11
260.313
 21
81.0479
 31
0.0
  0
LINE
  8
0
 62
     0
 10
260.313
 20
81.0479
 30
0.0
 11
260.313
 21
78.2493
 31
0.0
  0
LINE
  8
0
 62
     0
 10
260.313
 20
78.2493
 30
0.0
 11
261.138
 21
78.2493
 31
0.0
  0
LINE
  8
0
 62
     0
 10
261.138
 20
78.2493
 30
0.0
 11
261.138
 21
71.9776
 31
0.0
  0
LINE
  8
0
 62
     0
 10
261.138
 20
71.9776
 30
0.0
 11
262.862
 21
71.9776
 31
0.0
  0
LINE
  8
0
 62
     0
 10
262.862
 20
71.9776
 30
0.0
 11
262.862
 21
70.7803
 31
0.0
  0
LINE
  8
0
 62
     0
 10
262.862
 20
70.7803
 30
0.0
 11
266.163
 21
70.7803
 31
0.0
  0
LINE
  8
0
 62
     0
 10
266.163
 20
70.7803
 30
0.0
 11
266.163
 21
71.9776
 31
0.0
  0
LINE
  8
0
 62
     0
 10
266.163
 20
71.9776
 30
0.0
 11
267.888
 21
71.9776
 31
0.0
  0
LINE
  8
0
 62
     0
 10
267.888
 20
71.9776
 30
0.0
 11
267.888
 21
76.448
 31
0.0
  0
LINE
  8
0
 62
     0
 10
267.888
 20
76.448
 30
0.0
 11
269.413
 21
76.448
 31
0.0
  0
LINE
  8
0
 62
     0
 10
269.413
 20
76.448
 30
0.0
 11
269.413
 21
75.8486
 31
0.0
  0
LINE
  8
0
 62
     0
 10
269.413
 20
75.8486
 30
0.0
 11
268.613
 21
75.8486
 31
0.0
  0
LINE
  8
0
 62
     0
 10
268.613
 20
75.8486
 30
0.0
 11
268.613
 21
72.7495
 31
0.0
  0
LINE
  8
0
 62
     0
 10
268.613
 20
72.7495
 30
0.0
 11
269.413
 21
72.7495
 31
0.0
  0
LINE
  8
0
 62
     0
 10
269.413
 20
72.7495
 30
0.0
 11
269.413
 21
71.7504
 31
0.0
  0
LINE
  8
0
 62
     0
 10
269.413
 20
71.7504
 30
0.0
 11
283.413
 21
71.7504
 31
0.0
  0
LINE
  8
0
 62
     0
 10
283.413
 20
71.7504
 30
0.0
 11
283.413
 21
72.7495
 31
0.0
  0
LINE
  8
0
 62
     0
 10
283.413
 20
72.7495
 30
0.0
 11
284.212
 21
72.7495
 31
0.0
  0
LINE
  8
0
 62
     0
 10
284.212
 20
72.7495
 30
0.0
 11
284.212
 21
75.8486
 31
0.0
  0
LINE
  8
0
 62
     0
 10
284.212
 20
75.8486
 30
0.0
 11
283.413
 21
75.8486
 31
0.0
  0
LINE
  8
0
 62
     0
 10
283.413
 20
75.8486
 30
0.0
 11
283.413
 21
76.448
 31
0.0
  0
LINE
  8
0
 62
     0
 10
283.413
 20
76.448
 30
0.0
 11
284.938
 21
76.448
 31
0.0
  0
LINE
  8
0
 62
     0
 10
284.938
 20
76.448
 30
0.0
 11
284.938
 21
71.9776
 31
0.0
  0
LINE
  8
0
 62
     0
 10
284.938
 20
71.9776
 30
0.0
 11
286.662
 21
71.9776
 31
0.0
  0
LINE
  8
0
 62
     0
 10
286.662
 20
71.9776
 30
0.0
 11
286.662
 21
70.7803
 31
0.0
  0
LINE
  8
0
 62
     0
 10
286.662
 20
70.7803
 30
0.0
 11
289.963
 21
70.7803
 31
0.0
  0
LINE
  8
0
 62
     0
 10
289.963
 20
70.7803
 30
0.0
 11
289.963
 21
71.9776
 31
0.0
  0
LINE
  8
0
 62
     0
 10
289.963
 20
71.9776
 30
0.0
 11
291.688
 21
71.9776
 31
0.0
  0
LINE
  8
0
 62
     0
 10
291.688
 20
71.9776
 30
0.0
 11
291.688
 21
78.2493
 31
0.0
  0
LINE
  8
0
 62
     0
 10
291.688
 20
78.2493
 30
0.0
 11
292.513
 21
78.2493
 31
0.0
  0
LINE
  8
0
 62
     0
 10
292.513
 20
78.2493
 30
0.0
 11
292.513
 21
81.0479
 31
0.0
  0
LINE
  8
0
 62
     0
 10
292.513
 20
81.0479
 30
0.0
 11
291.688
 21
81.0479
 31
0.0
  0
LINE
  8
0
 62
     0
 10
291.688
 20
81.0479
 30
0.0
 11
291.688
 21
84.2793
 31
0.0
  0
LINE
  8
0
 62
     0
 10
291.688
 20
84.2793
 30
0.0
 11
284.938
 21
84.2793
 31
0.0
  0
LINE
  8
0
 62
     0
 10
284.938
 20
84.2793
 30
0.0
 11
284.938
 21
81.0479
 31
0.0
  0
LINE
  8
0
 62
     0
 10
284.938
 20
81.0479
 30
0.0
 11
283.413
 21
81.0479
 31
0.0
  0
LINE
  8
0
 62
     0
 10
283.413
 20
81.0479
 30
0.0
 11
283.413
 21
81.6487
 31
0.0
  0
LINE
  8
0
 62
     0
 10
283.413
 20
81.6487
 30
0.0
 11
284.212
 21
81.6487
 31
0.0
  0
LINE
  8
0
 62
     0
 10
284.212
 20
81.6487
 30
0.0
 11
284.212
 21
84.7492
 31
0.0
  0
LINE
  8
0
 62
     0
 10
284.212
 20
84.7492
 30
0.0
 11
283.413
 21
84.7492
 31
0.0
  0
LINE
  8
0
 62
     0
 10
283.413
 20
84.7492
 30
0.0
 11
283.413
 21
85.7497
 31
0.0
  0
LINE
  8
0
 62
     0
 10
283.413
 20
85.7497
 30
0.0
 11
269.413
 21
85.7497
 31
0.0
  0
LINE
  8
0
 62
     0
 10
21.7634
 20
85.7497
 30
0.0
 11
21.7634
 21
84.7492
 31
0.0
  0
LINE
  8
0
 62
     0
 10
21.7634
 20
84.7492
 30
0.0
 11
20.9627
 21
84.7492
 31
0.0
  0
LINE
  8
0
 62
     0
 10
20.9627
 20
84.7492
 30
0.0
 11
20.9627
 21
81.6487
 31
0.0
  0
LINE
  8
0
 62
     0
 10
20.9627
 20
81.6487
 30
0.0
 11
21.7634
 21
81.6487
 31
0.0
  0
LINE
  8
0
 62
     0
 10
21.7634
 20
81.6487
 30
0.0
 11
21.7634
 21
75.8486
 31
0.0
  0
LINE
  8
0
 62
     0
 10
21.7634
 20
75.8486
 30
0.0
 11
20.9627
 21
75.8486
 31
0.0
  0
LINE
  8
0
 62
     0
 10
20.9627
 20
75.8486
 30
0.0
 11
20.9627
 21
72.7495
 31
0.0
  0
LINE
  8
0
 62
     0
 10
20.9627
 20
72.7495
 30
0.0
 11
21.7634
 21
72.7495
 31
0.0
  0
LINE
  8
0
 62
     0
 10
21.7634
 20
72.7495
 30
0.0
 11
21.7634
 21
71.7504
 31
0.0
  0
LINE
  8
0
 62
     0
 10
21.7634
 20
71.7504
 30
0.0
 11
35.7628
 21
71.7504
 31
0.0
  0
LINE
  8
0
 62
     0
 10
35.7628
 20
71.7504
 30
0.0
 11
35.7628
 21
72.7495
 31
0.0
  0
LINE
  8
0
 62
     0
 10
35.7628
 20
72.7495
 30
0.0
 11
36.5622
 21
72.7495
 31
0.0
  0
LINE
  8
0
 62
     0
 10
36.5622
 20
72.7495
 30
0.0
 11
36.5622
 21
75.8486
 31
0.0
  0
LINE
  8
0
 62
     0
 10
36.5622
 20
75.8486
 30
0.0
 11
35.7628
 21
75.8486
 31
0.0
  0
LINE
  8
0
 62
     0
 10
35.7628
 20
75.8486
 30
0.0
 11
35.7628
 21
81.6487
 31
0.0
  0
LINE
  8
0
 62
     0
 10
35.7628
 20
81.6487
 30
0.0
 11
36.5622
 21
81.6487
 31
0.0
  0
LINE
  8
0
 62
     0
 10
36.5622
 20
81.6487
 30
0.0
 11
36.5622
 21
84.7492
 31
0.0
  0
LINE
  8
0
 62
     0
 10
36.5622
 20
84.7492
 30
0.0
 11
35.7628
 21
84.7492
 31
0.0
  0
LINE
  8
0
 62
     0
 10
35.7628
 20
84.7492
 30
0.0
 11
35.7628
 21
85.7497
 31
0.0
  0
LINE
  8
0
 62
     0
 10
35.7628
 20
85.7497
 30
0.0
 11
21.7634
 21
85.7497
 31
0.0
  0
LINE
  8
0
 62
     0
 10
47.957
 20
85.7497
 30
0.0
 11
47.957
 21
84.7492
 31
0.0
  0
LINE
  8
0
 62
     0
 10
47.957
 20
84.7492
 30
0.0
 11
47.1565
 21
84.7492
 31
0.0
  0
LINE
  8
0
 62
     0
 10
47.1565
 20
84.7492
 30
0.0
 11
47.1565
 21
81.6487
 31
0.0
  0
LINE
  8
0
 62
     0
 10
47.1565
 20
81.6487
 30
0.0
 11
47.957
 21
81.6487
 31
0.0
  0
LINE
  8
0
 62
     0
 10
47.957
 20
81.6487
 30
0.0
 11
47.957
 21
75.8486
 31
0.0
  0
LINE
  8
0
 62
     0
 10
47.957
 20
75.8486
 30
0.0
 11
47.1565
 21
75.8486
 31
0.0
  0
LINE
  8
0
 62
     0
 10
47.1565
 20
75.8486
 30
0.0
 11
47.1565
 21
72.7495
 31
0.0
  0
LINE
  8
0
 62
     0
 10
47.1565
 20
72.7495
 30
0.0
 11
47.957
 21
72.7495
 31
0.0
  0
LINE
  8
0
 62
     0
 10
47.957
 20
72.7495
 30
0.0
 11
47.957
 21
71.7504
 31
0.0
  0
LINE
  8
0
 62
     0
 10
47.957
 20
71.7504
 30
0.0
 11
61.9566
 21
71.7504
 31
0.0
  0
LINE
  8
0
 62
     0
 10
61.9566
 20
71.7504
 30
0.0
 11
61.9566
 21
72.7495
 31
0.0
  0
LINE
  8
0
 62
     0
 10
61.9566
 20
72.7495
 30
0.0
 11
62.7574
 21
72.7495
 31
0.0
  0
LINE
  8
0
 62
     0
 10
62.7574
 20
72.7495
 30
0.0
 11
62.7574
 21
75.8486
 31
0.0
  0
LINE
  8
0
 62
     0
 10
62.7574
 20
75.8486
 30
0.0
 11
61.9566
 21
75.8486
 31
0.0
  0
LINE
  8
0
 62
     0
 10
61.9566
 20
75.8486
 30
0.0
 11
61.9566
 21
81.6487
 31
0.0
  0
LINE
  8
0
 62
     0
 10
61.9566
 20
81.6487
 30
0.0
 11
62.7574
 21
81.6487
 31
0.0
  0
LINE
  8
0
 62
     0
 10
62.7574
 20
81.6487
 30
0.0
 11
62.7574
 21
84.7492
 31
0.0
  0
LINE
  8
0
 62
     0
 10
62.7574
 20
84.7492
 30
0.0
 11
61.9566
 21
84.7492
 31
0.0
  0
LINE
  8
0
 62
     0
 10
61.9566
 20
84.7492
 30
0.0
 11
61.9566
 21
85.7497
 31
0.0
  0
LINE
  8
0
 62
     0
 10
61.9566
 20
85.7497
 30
0.0
 11
47.957
 21
85.7497
 31
0.0
  0
LINE
  8
0
 62
     0
 10
67.007
 20
85.7497
 30
0.0
 11
67.007
 21
84.7492
 31
0.0
  0
LINE
  8
0
 62
     0
 10
67.007
 20
84.7492
 30
0.0
 11
66.2065
 21
84.7492
 31
0.0
  0
LINE
  8
0
 62
     0
 10
66.2065
 20
84.7492
 30
0.0
 11
66.2065
 21
81.6487
 31
0.0
  0
LINE
  8
0
 62
     0
 10
66.2065
 20
81.6487
 30
0.0
 11
67.007
 21
81.6487
 31
0.0
  0
LINE
  8
0
 62
     0
 10
67.007
 20
81.6487
 30
0.0
 11
67.007
 21
75.8486
 31
0.0
  0
LINE
  8
0
 62
     0
 10
67.007
 20
75.8486
 30
0.0
 11
66.2065
 21
75.8486
 31
0.0
  0
LINE
  8
0
 62
     0
 10
66.2065
 20
75.8486
 30
0.0
 11
66.2065
 21
72.7495
 31
0.0
  0
LINE
  8
0
 62
     0
 10
66.2065
 20
72.7495
 30
0.0
 11
67.007
 21
72.7495
 31
0.0
  0
LINE
  8
0
 62
     0
 10
67.007
 20
72.7495
 30
0.0
 11
67.007
 21
71.7504
 31
0.0
  0
LINE
  8
0
 62
     0
 10
67.007
 20
71.7504
 30
0.0
 11
81.0066
 21
71.7504
 31
0.0
  0
LINE
  8
0
 62
     0
 10
81.0066
 20
71.7504
 30
0.0
 11
81.0066
 21
72.7495
 31
0.0
  0
LINE
  8
0
 62
     0
 10
81.0066
 20
72.7495
 30
0.0
 11
81.8074
 21
72.7495
 31
0.0
  0
LINE
  8
0
 62
     0
 10
81.8074
 20
72.7495
 30
0.0
 11
81.8074
 21
75.8486
 31
0.0
  0
LINE
  8
0
 62
     0
 10
81.8074
 20
75.8486
 30
0.0
 11
81.0066
 21
75.8486
 31
0.0
  0
LINE
  8
0
 62
     0
 10
81.0066
 20
75.8486
 30
0.0
 11
81.0066
 21
81.6487
 31
0.0
  0
LINE
  8
0
 62
     0
 10
81.0066
 20
81.6487
 30
0.0
 11
81.8074
 21
81.6487
 31
0.0
  0
LINE
  8
0
 62
     0
 10
81.8074
 20
81.6487
 30
0.0
 11
81.8074
 21
84.7492
 31
0.0
  0
LINE
  8
0
 62
     0
 10
81.8074
 20
84.7492
 30
0.0
 11
81.0066
 21
84.7492
 31
0.0
  0
LINE
  8
0
 62
     0
 10
81.0066
 20
84.7492
 30
0.0
 11
81.0066
 21
85.7497
 31
0.0
  0
LINE
  8
0
 62
     0
 10
81.0066
 20
85.7497
 30
0.0
 11
67.007
 21
85.7497
 31
0.0
  0
LINE
  8
0
 62
     0
 10
86.057
 20
85.7497
 30
0.0
 11
86.057
 21
84.7492
 31
0.0
  0
LINE
  8
0
 62
     0
 10
86.057
 20
84.7492
 30
0.0
 11
85.2565
 21
84.7492
 31
0.0
  0
LINE
  8
0
 62
     0
 10
85.2565
 20
84.7492
 30
0.0
 11
85.2565
 21
81.6487
 31
0.0
  0
LINE
  8
0
 62
     0
 10
85.2565
 20
81.6487
 30
0.0
 11
86.057
 21
81.6487
 31
0.0
  0
LINE
  8
0
 62
     0
 10
86.057
 20
81.6487
 30
0.0
 11
86.057
 21
75.8486
 31
0.0
  0
LINE
  8
0
 62
     0
 10
86.057
 20
75.8486
 30
0.0
 11
85.2565
 21
75.8486
 31
0.0
  0
LINE
  8
0
 62
     0
 10
85.2565
 20
75.8486
 30
0.0
 11
85.2565
 21
72.7495
 31
0.0
  0
LINE
  8
0
 62
     0
 10
85.2565
 20
72.7495
 30
0.0
 11
86.057
 21
72.7495
 31
0.0
  0
LINE
  8
0
 62
     0
 10
86.057
 20
72.7495
 30
0.0
 11
86.057
 21
71.7504
 31
0.0
  0
LINE
  8
0
 62
     0
 10
86.057
 20
71.7504
 30
0.0
 11
100.057
 21
71.7504
 31
0.0
  0
LINE
  8
0
 62
     0
 10
100.057
 20
71.7504
 30
0.0
 11
100.057
 21
72.7495
 31
0.0
  0
LINE
  8
0
 62
     0
 10
100.057
 20
72.7495
 30
0.0
 11
100.857
 21
72.7495
 31
0.0
  0
LINE
  8
0
 62
     0
 10
100.857
 20
72.7495
 30
0.0
 11
100.857
 21
75.8486
 31
0.0
  0
LINE
  8
0
 62
     0
 10
100.857
 20
75.8486
 30
0.0
 11
100.057
 21
75.8486
 31
0.0
  0
LINE
  8
0
 62
     0
 10
100.057
 20
75.8486
 30
0.0
 11
100.057
 21
81.6487
 31
0.0
  0
LINE
  8
0
 62
     0
 10
100.057
 20
81.6487
 30
0.0
 11
100.857
 21
81.6487
 31
0.0
  0
LINE
  8
0
 62
     0
 10
100.857
 20
81.6487
 30
0.0
 11
100.857
 21
84.7492
 31
0.0
  0
LINE
  8
0
 62
     0
 10
100.857
 20
84.7492
 30
0.0
 11
100.057
 21
84.7492
 31
0.0
  0
LINE
  8
0
 62
     0
 10
100.057
 20
84.7492
 30
0.0
 11
100.057
 21
85.7497
 31
0.0
  0
LINE
  8
0
 62
     0
 10
100.057
 20
85.7497
 30
0.0
 11
86.057
 21
85.7497
 31
0.0
  0
LINE
  8
0
 62
     0
 10
105.107
 20
85.7497
 30
0.0
 11
105.107
 21
84.7492
 31
0.0
  0
LINE
  8
0
 62
     0
 10
105.107
 20
84.7492
 30
0.0
 11
104.307
 21
84.7492
 31
0.0
  0
LINE
  8
0
 62
     0
 10
104.307
 20
84.7492
 30
0.0
 11
104.307
 21
81.6487
 31
0.0
  0
LINE
  8
0
 62
     0
 10
104.307
 20
81.6487
 30
0.0
 11
105.107
 21
81.6487
 31
0.0
  0
LINE
  8
0
 62
     0
 10
105.107
 20
81.6487
 30
0.0
 11
105.107
 21
75.8486
 31
0.0
  0
LINE
  8
0
 62
     0
 10
105.107
 20
75.8486
 30
0.0
 11
104.307
 21
75.8486
 31
0.0
  0
LINE
  8
0
 62
     0
 10
104.307
 20
75.8486
 30
0.0
 11
104.307
 21
72.7495
 31
0.0
  0
LINE
  8
0
 62
     0
 10
104.307
 20
72.7495
 30
0.0
 11
105.107
 21
72.7495
 31
0.0
  0
LINE
  8
0
 62
     0
 10
105.107
 20
72.7495
 30
0.0
 11
105.107
 21
71.7504
 31
0.0
  0
LINE
  8
0
 62
     0
 10
105.107
 20
71.7504
 30
0.0
 11
119.107
 21
71.7504
 31
0.0
  0
LINE
  8
0
 62
     0
 10
119.107
 20
71.7504
 30
0.0
 11
119.107
 21
72.7495
 31
0.0
  0
LINE
  8
0
 62
     0
 10
119.107
 20
72.7495
 30
0.0
 11
119.907
 21
72.7495
 31
0.0
  0
LINE
  8
0
 62
     0
 10
119.907
 20
72.7495
 30
0.0
 11
119.907
 21
75.8486
 31
0.0
  0
LINE
  8
0
 62
     0
 10
119.907
 20
75.8486
 30
0.0
 11
119.107
 21
75.8486
 31
0.0
  0
LINE
  8
0
 62
     0
 10
119.107
 20
75.8486
 30
0.0
 11
119.107
 21
81.6487
 31
0.0
  0
LINE
  8
0
 62
     0
 10
119.107
 20
81.6487
 30
0.0
 11
119.907
 21
81.6487
 31
0.0
  0
LINE
  8
0
 62
     0
 10
119.907
 20
81.6487
 30
0.0
 11
119.907
 21
84.7492
 31
0.0
  0
LINE
  8
0
 62
     0
 10
119.907
 20
84.7492
 30
0.0
 11
119.107
 21
84.7492
 31
0.0
  0
LINE
  8
0
 62
     0
 10
119.107
 20
84.7492
 30
0.0
 11
119.107
 21
85.7497
 31
0.0
  0
LINE
  8
0
 62
     0
 10
119.107
 20
85.7497
 30
0.0
 11
105.107
 21
85.7497
 31
0.0
  0
LINE
  8
0
 62
     0
 10
124.157
 20
85.7497
 30
0.0
 11
124.157
 21
84.7492
 31
0.0
  0
LINE
  8
0
 62
     0
 10
124.157
 20
84.7492
 30
0.0
 11
123.357
 21
84.7492
 31
0.0
  0
LINE
  8
0
 62
     0
 10
123.357
 20
84.7492
 30
0.0
 11
123.357
 21
81.6487
 31
0.0
  0
LINE
  8
0
 62
     0
 10
123.357
 20
81.6487
 30
0.0
 11
124.157
 21
81.6487
 31
0.0
  0
LINE
  8
0
 62
     0
 10
124.157
 20
81.6487
 30
0.0
 11
124.157
 21
75.8486
 31
0.0
  0
LINE
  8
0
 62
     0
 10
124.157
 20
75.8486
 30
0.0
 11
123.357
 21
75.8486
 31
0.0
  0
LINE
  8
0
 62
     0
 10
123.357
 20
75.8486
 30
0.0
 11
123.357
 21
72.7495
 31
0.0
  0
LINE
  8
0
 62
     0
 10
123.357
 20
72.7495
 30
0.0
 11
124.157
 21
72.7495
 31
0.0
  0
LINE
  8
0
 62
     0
 10
124.157
 20
72.7495
 30
0.0
 11
124.157
 21
71.7504
 31
0.0
  0
LINE
  8
0
 62
     0
 10
124.157
 20
71.7504
 30
0.0
 11
138.157
 21
71.7504
 31
0.0
  0
LINE
  8
0
 62
     0
 10
138.157
 20
71.7504
 30
0.0
 11
138.157
 21
72.7495
 31
0.0
  0
LINE
  8
0
 62
     0
 10
138.157
 20
72.7495
 30
0.0
 11
138.957
 21
72.7495
 31
0.0
  0
LINE
  8
0
 62
     0
 10
138.957
 20
72.7495
 30
0.0
 11
138.957
 21
75.8486
 31
0.0
  0
LINE
  8
0
 62
     0
 10
138.957
 20
75.8486
 30
0.0
 11
138.157
 21
75.8486
 31
0.0
  0
LINE
  8
0
 62
     0
 10
138.157
 20
75.8486
 30
0.0
 11
138.157
 21
81.6487
 31
0.0
  0
LINE
  8
0
 62
     0
 10
138.157
 20
81.6487
 30
0.0
 11
138.957
 21
81.6487
 31
0.0
  0
LINE
  8
0
 62
     0
 10
138.957
 20
81.6487
 30
0.0
 11
138.957
 21
84.7492
 31
0.0
  0
LINE
  8
0
 62
     0
 10
138.957
 20
84.7492
 30
0.0
 11
138.157
 21
84.7492
 31
0.0
  0
LINE
  8
0
 62
     0
 10
138.157
 20
84.7492
 30
0.0
 11
138.157
 21
85.7497
 31
0.0
  0
LINE
  8
0
 62
     0
 10
138.157
 20
85.7497
 30
0.0
 11
124.157
 21
85.7497
 31
0.0
  0
LINE
  8
0
 62
     0
 10
143.207
 20
85.7497
 30
0.0
 11
143.207
 21
84.7492
 31
0.0
  0
LINE
  8
0
 62
     0
 10
143.207
 20
84.7492
 30
0.0
 11
142.407
 21
84.7492
 31
0.0
  0
LINE
  8
0
 62
     0
 10
142.407
 20
84.7492
 30
0.0
 11
142.407
 21
81.6487
 31
0.0
  0
LINE
  8
0
 62
     0
 10
142.407
 20
81.6487
 30
0.0
 11
143.207
 21
81.6487
 31
0.0
  0
LINE
  8
0
 62
     0
 10
143.207
 20
81.6487
 30
0.0
 11
143.207
 21
75.8486
 31
0.0
  0
LINE
  8
0
 62
     0
 10
143.207
 20
75.8486
 30
0.0
 11
142.407
 21
75.8486
 31
0.0
  0
LINE
  8
0
 62
     0
 10
142.407
 20
75.8486
 30
0.0
 11
142.407
 21
72.7495
 31
0.0
  0
LINE
  8
0
 62
     0
 10
142.407
 20
72.7495
 30
0.0
 11
143.207
 21
72.7495
 31
0.0
  0
LINE
  8
0
 62
     0
 10
143.207
 20
72.7495
 30
0.0
 11
143.207
 21
71.7504
 31
0.0
  0
LINE
  8
0
 62
     0
 10
143.207
 20
71.7504
 30
0.0
 11
157.207
 21
71.7504
 31
0.0
  0
LINE
  8
0
 62
     0
 10
157.207
 20
71.7504
 30
0.0
 11
157.207
 21
72.7495
 31
0.0
  0
LINE
  8
0
 62
     0
 10
157.207
 20
72.7495
 30
0.0
 11
158.007
 21
72.7495
 31
0.0
  0
LINE
  8
0
 62
     0
 10
158.007
 20
72.7495
 30
0.0
 11
158.007
 21
75.8486
 31
0.0
  0
LINE
  8
0
 62
     0
 10
158.007
 20
75.8486
 30
0.0
 11
157.207
 21
75.8486
 31
0.0
  0
LINE
  8
0
 62
     0
 10
157.207
 20
75.8486
 30
0.0
 11
157.207
 21
81.6487
 31
0.0
  0
LINE
  8
0
 62
     0
 10
157.207
 20
81.6487
 30
0.0
 11
158.007
 21
81.6487
 31
0.0
  0
LINE
  8
0
 62
     0
 10
158.007
 20
81.6487
 30
0.0
 11
158.007
 21
84.7492
 31
0.0
  0
LINE
  8
0
 62
     0
 10
158.007
 20
84.7492
 30
0.0
 11
157.207
 21
84.7492
 31
0.0
  0
LINE
  8
0
 62
     0
 10
157.207
 20
84.7492
 30
0.0
 11
157.207
 21
85.7497
 31
0.0
  0
LINE
  8
0
 62
     0
 10
157.207
 20
85.7497
 30
0.0
 11
143.207
 21
85.7497
 31
0.0
  0
LINE
  8
0
 62
     0
 10
162.257
 20
85.7497
 30
0.0
 11
162.257
 21
84.7492
 31
0.0
  0
LINE
  8
0
 62
     0
 10
162.257
 20
84.7492
 30
0.0
 11
161.457
 21
84.7492
 31
0.0
  0
LINE
  8
0
 62
     0
 10
161.457
 20
84.7492
 30
0.0
 11
161.457
 21
81.6487
 31
0.0
  0
LINE
  8
0
 62
     0
 10
161.457
 20
81.6487
 30
0.0
 11
162.257
 21
81.6487
 31
0.0
  0
LINE
  8
0
 62
     0
 10
162.257
 20
81.6487
 30
0.0
 11
162.257
 21
75.8486
 31
0.0
  0
LINE
  8
0
 62
     0
 10
162.257
 20
75.8486
 30
0.0
 11
161.457
 21
75.8486
 31
0.0
  0
LINE
  8
0
 62
     0
 10
161.457
 20
75.8486
 30
0.0
 11
161.457
 21
72.7495
 31
0.0
  0
LINE
  8
0
 62
     0
 10
161.457
 20
72.7495
 30
0.0
 11
162.257
 21
72.7495
 31
0.0
  0
LINE
  8
0
 62
     0
 10
162.257
 20
72.7495
 30
0.0
 11
162.257
 21
71.7504
 31
0.0
  0
LINE
  8
0
 62
     0
 10
162.257
 20
71.7504
 30
0.0
 11
176.257
 21
71.7504
 31
0.0
  0
LINE
  8
0
 62
     0
 10
176.257
 20
71.7504
 30
0.0
 11
176.257
 21
72.7495
 31
0.0
  0
LINE
  8
0
 62
     0
 10
176.257
 20
72.7495
 30
0.0
 11
177.057
 21
72.7495
 31
0.0
  0
LINE
  8
0
 62
     0
 10
177.057
 20
72.7495
 30
0.0
 11
177.057
 21
75.8486
 31
0.0
  0
LINE
  8
0
 62
     0
 10
177.057
 20
75.8486
 30
0.0
 11
176.257
 21
75.8486
 31
0.0
  0
LINE
  8
0
 62
     0
 10
176.257
 20
75.8486
 30
0.0
 11
176.257
 21
81.6487
 31
0.0
  0
LINE
  8
0
 62
     0
 10
176.257
 20
81.6487
 30
0.0
 11
177.057
 21
81.6487
 31
0.0
  0
LINE
  8
0
 62
     0
 10
177.057
 20
81.6487
 30
0.0
 11
177.057
 21
84.7492
 31
0.0
  0
LINE
  8
0
 62
     0
 10
177.057
 20
84.7492
 30
0.0
 11
176.257
 21
84.7492
 31
0.0
  0
LINE
  8
0
 62
     0
 10
176.257
 20
84.7492
 30
0.0
 11
176.257
 21
85.7497
 31
0.0
  0
LINE
  8
0
 62
     0
 10
176.257
 20
85.7497
 30
0.0
 11
162.257
 21
85.7497
 31
0.0
  0
LINE
  8
0
 62
     0
 10
181.307
 20
85.7497
 30
0.0
 11
181.307
 21
84.7492
 31
0.0
  0
LINE
  8
0
 62
     0
 10
181.307
 20
84.7492
 30
0.0
 11
180.507
 21
84.7492
 31
0.0
  0
LINE
  8
0
 62
     0
 10
180.507
 20
84.7492
 30
0.0
 11
180.507
 21
81.6487
 31
0.0
  0
LINE
  8
0
 62
     0
 10
180.507
 20
81.6487
 30
0.0
 11
181.307
 21
81.6487
 31
0.0
  0
LINE
  8
0
 62
     0
 10
181.307
 20
81.6487
 30
0.0
 11
181.307
 21
75.8486
 31
0.0
  0
LINE
  8
0
 62
     0
 10
181.307
 20
75.8486
 30
0.0
 11
180.507
 21
75.8486
 31
0.0
  0
LINE
  8
0
 62
     0
 10
180.507
 20
75.8486
 30
0.0
 11
180.507
 21
72.7495
 31
0.0
  0
LINE
  8
0
 62
     0
 10
180.507
 20
72.7495
 30
0.0
 11
181.307
 21
72.7495
 31
0.0
  0
LINE
  8
0
 62
     0
 10
181.307
 20
72.7495
 30
0.0
 11
181.307
 21
71.7504
 31
0.0
  0
LINE
  8
0
 62
     0
 10
181.307
 20
71.7504
 30
0.0
 11
195.307
 21
71.7504
 31
0.0
  0
LINE
  8
0
 62
     0
 10
195.307
 20
71.7504
 30
0.0
 11
195.307
 21
72.7495
 31
0.0
  0
LINE
  8
0
 62
     0
 10
195.307
 20
72.7495
 30
0.0
 11
196.107
 21
72.7495
 31
0.0
  0
LINE
  8
0
 62
     0
 10
196.107
 20
72.7495
 30
0.0
 11
196.107
 21
75.8486
 31
0.0
  0
LINE
  8
0
 62
     0
 10
196.107
 20
75.8486
 30
0.0
 11
195.307
 21
75.8486
 31
0.0
  0
LINE
  8
0
 62
     0
 10
195.307
 20
75.8486
 30
0.0
 11
195.307
 21
81.6487
 31
0.0
  0
LINE
  8
0
 62
     0
 10
195.307
 20
81.6487
 30
0.0
 11
196.107
 21
81.6487
 31
0.0
  0
LINE
  8
0
 62
     0
 10
196.107
 20
81.6487
 30
0.0
 11
196.107
 21
84.7492
 31
0.0
  0
LINE
  8
0
 62
     0
 10
196.107
 20
84.7492
 30
0.0
 11
195.307
 21
84.7492
 31
0.0
  0
LINE
  8
0
 62
     0
 10
195.307
 20
84.7492
 30
0.0
 11
195.307
 21
85.7497
 31
0.0
  0
LINE
  8
0
 62
     0
 10
195.307
 20
85.7497
 30
0.0
 11
181.307
 21
85.7497
 31
0.0
  0
LINE
  8
0
 62
     0
 10
200.357
 20
85.7497
 30
0.0
 11
200.357
 21
84.7492
 31
0.0
  0
LINE
  8
0
 62
     0
 10
200.357
 20
84.7492
 30
0.0
 11
199.557
 21
84.7492
 31
0.0
  0
LINE
  8
0
 62
     0
 10
199.557
 20
84.7492
 30
0.0
 11
199.557
 21
81.6487
 31
0.0
  0
LINE
  8
0
 62
     0
 10
199.557
 20
81.6487
 30
0.0
 11
200.357
 21
81.6487
 31
0.0
  0
LINE
  8
0
 62
     0
 10
200.357
 20
81.6487
 30
0.0
 11
200.357
 21
75.8486
 31
0.0
  0
LINE
  8
0
 62
     0
 10
200.357
 20
75.8486
 30
0.0
 11
199.557
 21
75.8486
 31
0.0
  0
LINE
  8
0
 62
     0
 10
199.557
 20
75.8486
 30
0.0
 11
199.557
 21
72.7495
 31
0.0
  0
LINE
  8
0
 62
     0
 10
199.557
 20
72.7495
 30
0.0
 11
200.357
 21
72.7495
 31
0.0
  0
LINE
  8
0
 62
     0
 10
200.357
 20
72.7495
 30
0.0
 11
200.357
 21
71.7504
 31
0.0
  0
LINE
  8
0
 62
     0
 10
200.357
 20
71.7504
 30
0.0
 11
214.357
 21
71.7504
 31
0.0
  0
LINE
  8
0
 62
     0
 10
214.357
 20
71.7504
 30
0.0
 11
214.357
 21
72.7495
 31
0.0
  0
LINE
  8
0
 62
     0
 10
214.357
 20
72.7495
 30
0.0
 11
215.157
 21
72.7495
 31
0.0
  0
LINE
  8
0
 62
     0
 10
215.157
 20
72.7495
 30
0.0
 11
215.157
 21
75.8486
 31
0.0
  0
LINE
  8
0
 62
     0
 10
215.157
 20
75.8486
 30
0.0
 11
214.357
 21
75.8486
 31
0.0
  0
LINE
  8
0
 62
     0
 10
214.357
 20
75.8486
 30
0.0
 11
214.357
 21
81.6487
 31
0.0
  0
LINE
  8
0
 62
     0
 10
214.357
 20
81.6487
 30
0.0
 11
215.157
 21
81.6487
 31
0.0
  0
LINE
  8
0
 62
     0
 10
215.157
 20
81.6487
 30
0.0
 11
215.157
 21
84.7492
 31
0.0
  0
LINE
  8
0
 62
     0
 10
215.157
 20
84.7492
 30
0.0
 11
214.357
 21
84.7492
 31
0.0
  0
LINE
  8
0
 62
     0
 10
214.357
 20
84.7492
 30
0.0
 11
214.357
 21
85.7497
 31
0.0
  0
LINE
  8
0
 62
     0
 10
214.357
 20
85.7497
 30
0.0
 11
200.357
 21
85.7497
 31
0.0
  0
LINE
  8
0
 62
     0
 10
219.407
 20
85.7497
 30
0.0
 11
219.407
 21
84.7492
 31
0.0
  0
LINE
  8
0
 62
     0
 10
219.407
 20
84.7492
 30
0.0
 11
218.607
 21
84.7492
 31
0.0
  0
LINE
  8
0
 62
     0
 10
218.607
 20
84.7492
 30
0.0
 11
218.607
 21
81.6487
 31
0.0
  0
LINE
  8
0
 62
     0
 10
218.607
 20
81.6487
 30
0.0
 11
219.407
 21
81.6487
 31
0.0
  0
LINE
  8
0
 62
     0
 10
219.407
 20
81.6487
 30
0.0
 11
219.407
 21
75.8486
 31
0.0
  0
LINE
  8
0
 62
     0
 10
219.407
 20
75.8486
 30
0.0
 11
218.607
 21
75.8486
 31
0.0
  0
LINE
  8
0
 62
     0
 10
218.607
 20
75.8486
 30
0.0
 11
218.607
 21
72.7495
 31
0.0
  0
LINE
  8
0
 62
     0
 10
218.607
 20
72.7495
 30
0.0
 11
219.407
 21
72.7495
 31
0.0
  0
LINE
  8
0
 62
     0
 10
219.407
 20
72.7495
 30
0.0
 11
219.407
 21
71.7504
 31
0.0
  0
LINE
  8
0
 62
     0
 10
219.407
 20
71.7504
 30
0.0
 11
233.407
 21
71.7504
 31
0.0
  0
LINE
  8
0
 62
     0
 10
233.407
 20
71.7504
 30
0.0
 11
233.407
 21
72.7495
 31
0.0
  0
LINE
  8
0
 62
     0
 10
233.407
 20
72.7495
 30
0.0
 11
234.207
 21
72.7495
 31
0.0
  0
LINE
  8
0
 62
     0
 10
234.207
 20
72.7495
 30
0.0
 11
234.207
 21
75.8486
 31
0.0
  0
LINE
  8
0
 62
     0
 10
234.207
 20
75.8486
 30
0.0
 11
233.407
 21
75.8486
 31
0.0
  0
LINE
  8
0
 62
     0
 10
233.407
 20
75.8486
 30
0.0
 11
233.407
 21
81.6487
 31
0.0
  0
LINE
  8
0
 62
     0
 10
233.407
 20
81.6487
 30
0.0
 11
234.207
 21
81.6487
 31
0.0
  0
LINE
  8
0
 62
     0
 10
234.207
 20
81.6487
 30
0.0
 11
234.207
 21
84.7492
 31
0.0
  0
LINE
  8
0
 62
     0
 10
234.207
 20
84.7492
 30
0.0
 11
233.407
 21
84.7492
 31
0.0
  0
LINE
  8
0
 62
     0
 10
233.407
 20
84.7492
 30
0.0
 11
233.407
 21
85.7497
 31
0.0
  0
LINE
  8
0
 62
     0
 10
233.407
 20
85.7497
 30
0.0
 11
219.407
 21
85.7497
 31
0.0
  0
LINE
  8
0
 62
     0
 10
238.457
 20
85.7497
 30
0.0
 11
238.457
 21
84.7492
 31
0.0
  0
LINE
  8
0
 62
     0
 10
238.457
 20
84.7492
 30
0.0
 11
237.657
 21
84.7492
 31
0.0
  0
LINE
  8
0
 62
     0
 10
237.657
 20
84.7492
 30
0.0
 11
237.657
 21
81.6487
 31
0.0
  0
LINE
  8
0
 62
     0
 10
237.657
 20
81.6487
 30
0.0
 11
238.457
 21
81.6487
 31
0.0
  0
LINE
  8
0
 62
     0
 10
238.457
 20
81.6487
 30
0.0
 11
238.457
 21
75.8486
 31
0.0
  0
LINE
  8
0
 62
     0
 10
238.457
 20
75.8486
 30
0.0
 11
237.657
 21
75.8486
 31
0.0
  0
LINE
  8
0
 62
     0
 10
237.657
 20
75.8486
 30
0.0
 11
237.657
 21
72.7495
 31
0.0
  0
LINE
  8
0
 62
     0
 10
237.657
 20
72.7495
 30
0.0
 11
238.457
 21
72.7495
 31
0.0
  0
LINE
  8
0
 62
     0
 10
238.457
 20
72.7495
 30
0.0
 11
238.457
 21
71.7504
 31
0.0
  0
LINE
  8
0
 62
     0
 10
238.457
 20
71.7504
 30
0.0
 11
252.457
 21
71.7504
 31
0.0
  0
LINE
  8
0
 62
     0
 10
252.457
 20
71.7504
 30
0.0
 11
252.457
 21
72.7495
 31
0.0
  0
LINE
  8
0
 62
     0
 10
252.457
 20
72.7495
 30
0.0
 11
253.256
 21
72.7495
 31
0.0
  0
LINE
  8
0
 62
     0
 10
253.256
 20
72.7495
 30
0.0
 11
253.256
 21
75.8486
 31
0.0
  0
LINE
  8
0
 62
     0
 10
253.256
 20
75.8486
 30
0.0
 11
252.457
 21
75.8486
 31
0.0
  0
LINE
  8
0
 62
     0
 10
252.457
 20
75.8486
 30
0.0
 11
252.457
 21
81.6487
 31
0.0
  0
LINE
  8
0
 62
     0
 10
252.457
 20
81.6487
 30
0.0
 11
253.256
 21
81.6487
 31
0.0
  0
LINE
  8
0
 62
     0
 10
253.256
 20
81.6487
 30
0.0
 11
253.256
 21
84.7492
 31
0.0
  0
LINE
  8
0
 62
     0
 10
253.256
 20
84.7492
 30
0.0
 11
252.457
 21
84.7492
 31
0.0
  0
LINE
  8
0
 62
     0
 10
252.457
 20
84.7492
 30
0.0
 11
252.457
 21
85.7497
 31
0.0
  0
LINE
  8
0
 62
     0
 10
252.457
 20
85.7497
 30
0.0
 11
238.457
 21
85.7497
 31
0.0
  0
LINE
  8
0
 62
     0
 10
19.3821
 20
104.8
 30
0.0
 11
19.3821
 21
103.799
 31
0.0
  0
LINE
  8
0
 62
     0
 10
19.3821
 20
103.799
 30
0.0
 11
18.5815
 21
103.799
 31
0.0
  0
LINE
  8
0
 62
     0
 10
18.5815
 20
103.799
 30
0.0
 11
18.5815
 21
100.699
 31
0.0
  0
LINE
  8
0
 62
     0
 10
18.5815
 20
100.699
 30
0.0
 11
19.3821
 21
100.699
 31
0.0
  0
LINE
  8
0
 62
     0
 10
19.3821
 20
100.699
 30
0.0
 11
19.3821
 21
94.8986
 31
0.0
  0
LINE
  8
0
 62
     0
 10
19.3821
 20
94.8986
 30
0.0
 11
18.5815
 21
94.8986
 31
0.0
  0
LINE
  8
0
 62
     0
 10
18.5815
 20
94.8986
 30
0.0
 11
18.5815
 21
91.7995
 31
0.0
  0
LINE
  8
0
 62
     0
 10
18.5815
 20
91.7995
 30
0.0
 11
19.3821
 21
91.7995
 31
0.0
  0
LINE
  8
0
 62
     0
 10
19.3821
 20
91.7995
 30
0.0
 11
19.3821
 21
90.8004
 31
0.0
  0
LINE
  8
0
 62
     0
 10
19.3821
 20
90.8004
 30
0.0
 11
33.3816
 21
90.8004
 31
0.0
  0
LINE
  8
0
 62
     0
 10
33.3816
 20
90.8004
 30
0.0
 11
33.3816
 21
91.7995
 31
0.0
  0
LINE
  8
0
 62
     0
 10
33.3816
 20
91.7995
 30
0.0
 11
34.1822
 21
91.7995
 31
0.0
  0
LINE
  8
0
 62
     0
 10
34.1822
 20
91.7995
 30
0.0
 11
34.1822
 21
94.8986
 31
0.0
  0
LINE
  8
0
 62
     0
 10
34.1822
 20
94.8986
 30
0.0
 11
33.3816
 21
94.8986
 31
0.0
  0
LINE
  8
0
 62
     0
 10
33.3816
 20
94.8986
 30
0.0
 11
33.3816
 21
100.699
 31
0.0
  0
LINE
  8
0
 62
     0
 10
33.3816
 20
100.699
 30
0.0
 11
34.1822
 21
100.699
 31
0.0
  0
LINE
  8
0
 62
     0
 10
34.1822
 20
100.699
 30
0.0
 11
34.1822
 21
103.799
 31
0.0
  0
LINE
  8
0
 62
     0
 10
34.1822
 20
103.799
 30
0.0
 11
33.3816
 21
103.799
 31
0.0
  0
LINE
  8
0
 62
     0
 10
33.3816
 20
103.799
 30
0.0
 11
33.3816
 21
104.8
 31
0.0
  0
LINE
  8
0
 62
     0
 10
33.3816
 20
104.8
 30
0.0
 11
19.3821
 21
104.8
 31
0.0
  0
LINE
  8
0
 62
     0
 10
43.1945
 20
104.8
 30
0.0
 11
43.1945
 21
103.799
 31
0.0
  0
LINE
  8
0
 62
     0
 10
43.1945
 20
103.799
 30
0.0
 11
42.3954
 21
103.799
 31
0.0
  0
LINE
  8
0
 62
     0
 10
42.3954
 20
103.799
 30
0.0
 11
42.3954
 21
100.699
 31
0.0
  0
LINE
  8
0
 62
     0
 10
42.3954
 20
100.699
 30
0.0
 11
43.1945
 21
100.699
 31
0.0
  0
LINE
  8
0
 62
     0
 10
43.1945
 20
100.699
 30
0.0
 11
43.1945
 21
94.8986
 31
0.0
  0
LINE
  8
0
 62
     0
 10
43.1945
 20
94.8986
 30
0.0
 11
42.3954
 21
94.8986
 31
0.0
  0
LINE
  8
0
 62
     0
 10
42.3954
 20
94.8986
 30
0.0
 11
42.3954
 21
91.7995
 31
0.0
  0
LINE
  8
0
 62
     0
 10
42.3954
 20
91.7995
 30
0.0
 11
43.1945
 21
91.7995
 31
0.0
  0
LINE
  8
0
 62
     0
 10
43.1945
 20
91.7995
 30
0.0
 11
43.1945
 21
90.8004
 31
0.0
  0
LINE
  8
0
 62
     0
 10
43.1945
 20
90.8004
 30
0.0
 11
57.1941
 21
90.8004
 31
0.0
  0
LINE
  8
0
 62
     0
 10
57.1941
 20
90.8004
 30
0.0
 11
57.1941
 21
91.7995
 31
0.0
  0
LINE
  8
0
 62
     0
 10
57.1941
 20
91.7995
 30
0.0
 11
57.9949
 21
91.7995
 31
0.0
  0
LINE
  8
0
 62
     0
 10
57.9949
 20
91.7995
 30
0.0
 11
57.9949
 21
94.8986
 31
0.0
  0
LINE
  8
0
 62
     0
 10
57.9949
 20
94.8986
 30
0.0
 11
57.1941
 21
94.8986
 31
0.0
  0
LINE
  8
0
 62
     0
 10
57.1941
 20
94.8986
 30
0.0
 11
57.1941
 21
100.699
 31
0.0
  0
LINE
  8
0
 62
     0
 10
57.1941
 20
100.699
 30
0.0
 11
57.9949
 21
100.699
 31
0.0
  0
LINE
  8
0
 62
     0
 10
57.9949
 20
100.699
 30
0.0
 11
57.9949
 21
103.799
 31
0.0
  0
LINE
  8
0
 62
     0
 10
57.9949
 20
103.799
 30
0.0
 11
57.1941
 21
103.799
 31
0.0
  0
LINE
  8
0
 62
     0
 10
57.1941
 20
103.799
 30
0.0
 11
57.1941
 21
104.8
 31
0.0
  0
LINE
  8
0
 62
     0
 10
57.1941
 20
104.8
 30
0.0
 11
43.1945
 21
104.8
 31
0.0
  0
LINE
  8
0
 62
     0
 10
62.2445
 20
104.8
 30
0.0
 11
62.2445
 21
103.799
 31
0.0
  0
LINE
  8
0
 62
     0
 10
62.2445
 20
103.799
 30
0.0
 11
61.4454
 21
103.799
 31
0.0
  0
LINE
  8
0
 62
     0
 10
61.4454
 20
103.799
 30
0.0
 11
61.4454
 21
100.699
 31
0.0
  0
LINE
  8
0
 62
     0
 10
61.4454
 20
100.699
 30
0.0
 11
62.2445
 21
100.699
 31
0.0
  0
LINE
  8
0
 62
     0
 10
62.2445
 20
100.699
 30
0.0
 11
62.2445
 21
94.8986
 31
0.0
  0
LINE
  8
0
 62
     0
 10
62.2445
 20
94.8986
 30
0.0
 11
61.4454
 21
94.8986
 31
0.0
  0
LINE
  8
0
 62
     0
 10
61.4454
 20
94.8986
 30
0.0
 11
61.4454
 21
91.7995
 31
0.0
  0
LINE
  8
0
 62
     0
 10
61.4454
 20
91.7995
 30
0.0
 11
62.2445
 21
91.7995
 31
0.0
  0
LINE
  8
0
 62
     0
 10
62.2445
 20
91.7995
 30
0.0
 11
62.2445
 21
90.8004
 31
0.0
  0
LINE
  8
0
 62
     0
 10
62.2445
 20
90.8004
 30
0.0
 11
76.2441
 21
90.8004
 31
0.0
  0
LINE
  8
0
 62
     0
 10
76.2441
 20
90.8004
 30
0.0
 11
76.2441
 21
91.7995
 31
0.0
  0
LINE
  8
0
 62
     0
 10
76.2441
 20
91.7995
 30
0.0
 11
77.0449
 21
91.7995
 31
0.0
  0
LINE
  8
0
 62
     0
 10
77.0449
 20
91.7995
 30
0.0
 11
77.0449
 21
94.8986
 31
0.0
  0
LINE
  8
0
 62
     0
 10
77.0449
 20
94.8986
 30
0.0
 11
76.2441
 21
94.8986
 31
0.0
  0
LINE
  8
0
 62
     0
 10
76.2441
 20
94.8986
 30
0.0
 11
76.2441
 21
100.699
 31
0.0
  0
LINE
  8
0
 62
     0
 10
76.2441
 20
100.699
 30
0.0
 11
77.0449
 21
100.699
 31
0.0
  0
LINE
  8
0
 62
     0
 10
77.0449
 20
100.699
 30
0.0
 11
77.0449
 21
103.799
 31
0.0
  0
LINE
  8
0
 62
     0
 10
77.0449
 20
103.799
 30
0.0
 11
76.2441
 21
103.799
 31
0.0
  0
LINE
  8
0
 62
     0
 10
76.2441
 20
103.799
 30
0.0
 11
76.2441
 21
104.8
 31
0.0
  0
LINE
  8
0
 62
     0
 10
76.2441
 20
104.8
 30
0.0
 11
62.2445
 21
104.8
 31
0.0
  0
LINE
  8
0
 62
     0
 10
81.2945
 20
104.8
 30
0.0
 11
81.2945
 21
103.799
 31
0.0
  0
LINE
  8
0
 62
     0
 10
81.2945
 20
103.799
 30
0.0
 11
80.4954
 21
103.799
 31
0.0
  0
LINE
  8
0
 62
     0
 10
80.4954
 20
103.799
 30
0.0
 11
80.4954
 21
100.699
 31
0.0
  0
LINE
  8
0
 62
     0
 10
80.4954
 20
100.699
 30
0.0
 11
81.2945
 21
100.699
 31
0.0
  0
LINE
  8
0
 62
     0
 10
81.2945
 20
100.699
 30
0.0
 11
81.2945
 21
94.8986
 31
0.0
  0
LINE
  8
0
 62
     0
 10
81.2945
 20
94.8986
 30
0.0
 11
80.4954
 21
94.8986
 31
0.0
  0
LINE
  8
0
 62
     0
 10
80.4954
 20
94.8986
 30
0.0
 11
80.4954
 21
91.7995
 31
0.0
  0
LINE
  8
0
 62
     0
 10
80.4954
 20
91.7995
 30
0.0
 11
81.2945
 21
91.7995
 31
0.0
  0
LINE
  8
0
 62
     0
 10
81.2945
 20
91.7995
 30
0.0
 11
81.2945
 21
90.8004
 31
0.0
  0
LINE
  8
0
 62
     0
 10
81.2945
 20
90.8004
 30
0.0
 11
95.2941
 21
90.8004
 31
0.0
  0
LINE
  8
0
 62
     0
 10
95.2941
 20
90.8004
 30
0.0
 11
95.2941
 21
91.7995
 31
0.0
  0
LINE
  8
0
 62
     0
 10
95.2941
 20
91.7995
 30
0.0
 11
96.0949
 21
91.7995
 31
0.0
  0
LINE
  8
0
 62
     0
 10
96.0949
 20
91.7995
 30
0.0
 11
96.0949
 21
94.8986
 31
0.0
  0
LINE
  8
0
 62
     0
 10
96.0949
 20
94.8986
 30
0.0
 11
95.2941
 21
94.8986
 31
0.0
  0
LINE
  8
0
 62
     0
 10
95.2941
 20
94.8986
 30
0.0
 11
95.2941
 21
100.699
 31
0.0
  0
LINE
  8
0
 62
     0
 10
95.2941
 20
100.699
 30
0.0
 11
96.0949
 21
100.699
 31
0.0
  0
LINE
  8
0
 62
     0
 10
96.0949
 20
100.699
 30
0.0
 11
96.0949
 21
103.799
 31
0.0
  0
LINE
  8
0
 62
     0
 10
96.0949
 20
103.799
 30
0.0
 11
95.2941
 21
103.799
 31
0.0
  0
LINE
  8
0
 62
     0
 10
95.2941
 20
103.799
 30
0.0
 11
95.2941
 21
104.8
 31
0.0
  0
LINE
  8
0
 62
     0
 10
95.2941
 20
104.8
 30
0.0
 11
81.2945
 21
104.8
 31
0.0
  0
LINE
  8
0
 62
     0
 10
100.344
 20
104.8
 30
0.0
 11
100.344
 21
103.799
 31
0.0
  0
LINE
  8
0
 62
     0
 10
100.344
 20
103.799
 30
0.0
 11
99.5454
 21
103.799
 31
0.0
  0
LINE
  8
0
 62
     0
 10
99.5454
 20
103.799
 30
0.0
 11
99.5454
 21
100.699
 31
0.0
  0
LINE
  8
0
 62
     0
 10
99.5454
 20
100.699
 30
0.0
 11
100.344
 21
100.699
 31
0.0
  0
LINE
  8
0
 62
     0
 10
100.344
 20
100.699
 30
0.0
 11
100.344
 21
94.8986
 31
0.0
  0
LINE
  8
0
 62
     0
 10
100.344
 20
94.8986
 30
0.0
 11
99.5454
 21
94.8986
 31
0.0
  0
LINE
  8
0
 62
     0
 10
99.5454
 20
94.8986
 30
0.0
 11
99.5454
 21
91.7995
 31
0.0
  0
LINE
  8
0
 62
     0
 10
99.5454
 20
91.7995
 30
0.0
 11
100.344
 21
91.7995
 31
0.0
  0
LINE
  8
0
 62
     0
 10
100.344
 20
91.7995
 30
0.0
 11
100.344
 21
90.8004
 31
0.0
  0
LINE
  8
0
 62
     0
 10
100.344
 20
90.8004
 30
0.0
 11
114.344
 21
90.8004
 31
0.0
  0
LINE
  8
0
 62
     0
 10
114.344
 20
90.8004
 30
0.0
 11
114.344
 21
91.7995
 31
0.0
  0
LINE
  8
0
 62
     0
 10
114.344
 20
91.7995
 30
0.0
 11
115.145
 21
91.7995
 31
0.0
  0
LINE
  8
0
 62
     0
 10
115.145
 20
91.7995
 30
0.0
 11
115.145
 21
94.8986
 31
0.0
  0
LINE
  8
0
 62
     0
 10
115.145
 20
94.8986
 30
0.0
 11
114.344
 21
94.8986
 31
0.0
  0
LINE
  8
0
 62
     0
 10
114.344
 20
94.8986
 30
0.0
 11
114.344
 21
100.699
 31
0.0
  0
LINE
  8
0
 62
     0
 10
114.344
 20
100.699
 30
0.0
 11
115.145
 21
100.699
 31
0.0
  0
LINE
  8
0
 62
     0
 10
115.145
 20
100.699
 30
0.0
 11
115.145
 21
103.799
 31
0.0
  0
LINE
  8
0
 62
     0
 10
115.145
 20
103.799
 30
0.0
 11
114.344
 21
103.799
 31
0.0
  0
LINE
  8
0
 62
     0
 10
114.344
 20
103.799
 30
0.0
 11
114.344
 21
104.8
 31
0.0
  0
LINE
  8
0
 62
     0
 10
114.344
 20
104.8
 30
0.0
 11
100.344
 21
104.8
 31
0.0
  0
LINE
  8
0
 62
     0
 10
119.394
 20
104.8
 30
0.0
 11
119.394
 21
103.799
 31
0.0
  0
LINE
  8
0
 62
     0
 10
119.394
 20
103.799
 30
0.0
 11
118.595
 21
103.799
 31
0.0
  0
LINE
  8
0
 62
     0
 10
118.595
 20
103.799
 30
0.0
 11
118.595
 21
100.699
 31
0.0
  0
LINE
  8
0
 62
     0
 10
118.595
 20
100.699
 30
0.0
 11
119.394
 21
100.699
 31
0.0
  0
LINE
  8
0
 62
     0
 10
119.394
 20
100.699
 30
0.0
 11
119.394
 21
94.8986
 31
0.0
  0
LINE
  8
0
 62
     0
 10
119.394
 20
94.8986
 30
0.0
 11
118.595
 21
94.8986
 31
0.0
  0
LINE
  8
0
 62
     0
 10
118.595
 20
94.8986
 30
0.0
 11
118.595
 21
91.7995
 31
0.0
  0
LINE
  8
0
 62
     0
 10
118.595
 20
91.7995
 30
0.0
 11
119.394
 21
91.7995
 31
0.0
  0
LINE
  8
0
 62
     0
 10
119.394
 20
91.7995
 30
0.0
 11
119.394
 21
90.8004
 31
0.0
  0
LINE
  8
0
 62
     0
 10
119.394
 20
90.8004
 30
0.0
 11
133.394
 21
90.8004
 31
0.0
  0
LINE
  8
0
 62
     0
 10
133.394
 20
90.8004
 30
0.0
 11
133.394
 21
91.7995
 31
0.0
  0
LINE
  8
0
 62
     0
 10
133.394
 20
91.7995
 30
0.0
 11
134.195
 21
91.7995
 31
0.0
  0
LINE
  8
0
 62
     0
 10
134.195
 20
91.7995
 30
0.0
 11
134.195
 21
94.8986
 31
0.0
  0
LINE
  8
0
 62
     0
 10
134.195
 20
94.8986
 30
0.0
 11
133.394
 21
94.8986
 31
0.0
  0
LINE
  8
0
 62
     0
 10
133.394
 20
94.8986
 30
0.0
 11
133.394
 21
100.699
 31
0.0
  0
LINE
  8
0
 62
     0
 10
133.394
 20
100.699
 30
0.0
 11
134.195
 21
100.699
 31
0.0
  0
LINE
  8
0
 62
     0
 10
134.195
 20
100.699
 30
0.0
 11
134.195
 21
103.799
 31
0.0
  0
LINE
  8
0
 62
     0
 10
134.195
 20
103.799
 30
0.0
 11
133.394
 21
103.799
 31
0.0
  0
LINE
  8
0
 62
     0
 10
133.394
 20
103.799
 30
0.0
 11
133.394
 21
104.8
 31
0.0
  0
LINE
  8
0
 62
     0
 10
133.394
 20
104.8
 30
0.0
 11
119.394
 21
104.8
 31
0.0
  0
LINE
  8
0
 62
     0
 10
138.444
 20
104.8
 30
0.0
 11
138.444
 21
103.799
 31
0.0
  0
LINE
  8
0
 62
     0
 10
138.444
 20
103.799
 30
0.0
 11
137.645
 21
103.799
 31
0.0
  0
LINE
  8
0
 62
     0
 10
137.645
 20
103.799
 30
0.0
 11
137.645
 21
100.699
 31
0.0
  0
LINE
  8
0
 62
     0
 10
137.645
 20
100.699
 30
0.0
 11
138.444
 21
100.699
 31
0.0
  0
LINE
  8
0
 62
     0
 10
138.444
 20
100.699
 30
0.0
 11
138.444
 21
94.8986
 31
0.0
  0
LINE
  8
0
 62
     0
 10
138.444
 20
94.8986
 30
0.0
 11
137.645
 21
94.8986
 31
0.0
  0
LINE
  8
0
 62
     0
 10
137.645
 20
94.8986
 30
0.0
 11
137.645
 21
91.7995
 31
0.0
  0
LINE
  8
0
 62
     0
 10
137.645
 20
91.7995
 30
0.0
 11
138.444
 21
91.7995
 31
0.0
  0
LINE
  8
0
 62
     0
 10
138.444
 20
91.7995
 30
0.0
 11
138.444
 21
90.8004
 31
0.0
  0
LINE
  8
0
 62
     0
 10
138.444
 20
90.8004
 30
0.0
 11
152.444
 21
90.8004
 31
0.0
  0
LINE
  8
0
 62
     0
 10
152.444
 20
90.8004
 30
0.0
 11
152.444
 21
91.7995
 31
0.0
  0
LINE
  8
0
 62
     0
 10
152.444
 20
91.7995
 30
0.0
 11
153.245
 21
91.7995
 31
0.0
  0
LINE
  8
0
 62
     0
 10
153.245
 20
91.7995
 30
0.0
 11
153.245
 21
94.8986
 31
0.0
  0
LINE
  8
0
 62
     0
 10
153.245
 20
94.8986
 30
0.0
 11
152.444
 21
94.8986
 31
0.0
  0
LINE
  8
0
 62
     0
 10
152.444
 20
94.8986
 30
0.0
 11
152.444
 21
100.699
 31
0.0
  0
LINE
  8
0
 62
     0
 10
152.444
 20
100.699
 30
0.0
 11
153.245
 21
100.699
 31
0.0
  0
LINE
  8
0
 62
     0
 10
153.245
 20
100.699
 30
0.0
 11
153.245
 21
103.799
 31
0.0
  0
LINE
  8
0
 62
     0
 10
153.245
 20
103.799
 30
0.0
 11
152.444
 21
103.799
 31
0.0
  0
LINE
  8
0
 62
     0
 10
152.444
 20
103.799
 30
0.0
 11
152.444
 21
104.8
 31
0.0
  0
LINE
  8
0
 62
     0
 10
152.444
 20
104.8
 30
0.0
 11
138.444
 21
104.8
 31
0.0
  0
LINE
  8
0
 62
     0
 10
157.494
 20
104.8
 30
0.0
 11
157.494
 21
103.799
 31
0.0
  0
LINE
  8
0
 62
     0
 10
157.494
 20
103.799
 30
0.0
 11
156.695
 21
103.799
 31
0.0
  0
LINE
  8
0
 62
     0
 10
156.695
 20
103.799
 30
0.0
 11
156.695
 21
100.699
 31
0.0
  0
LINE
  8
0
 62
     0
 10
156.695
 20
100.699
 30
0.0
 11
157.494
 21
100.699
 31
0.0
  0
LINE
  8
0
 62
     0
 10
157.494
 20
100.699
 30
0.0
 11
157.494
 21
94.8986
 31
0.0
  0
LINE
  8
0
 62
     0
 10
157.494
 20
94.8986
 30
0.0
 11
156.695
 21
94.8986
 31
0.0
  0
LINE
  8
0
 62
     0
 10
156.695
 20
94.8986
 30
0.0
 11
156.695
 21
91.7995
 31
0.0
  0
LINE
  8
0
 62
     0
 10
156.695
 20
91.7995
 30
0.0
 11
157.494
 21
91.7995
 31
0.0
  0
LINE
  8
0
 62
     0
 10
157.494
 20
91.7995
 30
0.0
 11
157.494
 21
90.8004
 31
0.0
  0
LINE
  8
0
 62
     0
 10
157.494
 20
90.8004
 30
0.0
 11
171.494
 21
90.8004
 31
0.0
  0
LINE
  8
0
 62
     0
 10
171.494
 20
90.8004
 30
0.0
 11
171.494
 21
91.7995
 31
0.0
  0
LINE
  8
0
 62
     0
 10
171.494
 20
91.7995
 30
0.0
 11
172.295
 21
91.7995
 31
0.0
  0
LINE
  8
0
 62
     0
 10
172.295
 20
91.7995
 30
0.0
 11
172.295
 21
94.8986
 31
0.0
  0
LINE
  8
0
 62
     0
 10
172.295
 20
94.8986
 30
0.0
 11
171.494
 21
94.8986
 31
0.0
  0
LINE
  8
0
 62
     0
 10
171.494
 20
94.8986
 30
0.0
 11
171.494
 21
100.699
 31
0.0
  0
LINE
  8
0
 62
     0
 10
171.494
 20
100.699
 30
0.0
 11
172.295
 21
100.699
 31
0.0
  0
LINE
  8
0
 62
     0
 10
172.295
 20
100.699
 30
0.0
 11
172.295
 21
103.799
 31
0.0
  0
LINE
  8
0
 62
     0
 10
172.295
 20
103.799
 30
0.0
 11
171.494
 21
103.799
 31
0.0
  0
LINE
  8
0
 62
     0
 10
171.494
 20
103.799
 30
0.0
 11
171.494
 21
104.8
 31
0.0
  0
LINE
  8
0
 62
     0
 10
171.494
 20
104.8
 30
0.0
 11
157.494
 21
104.8
 31
0.0
  0
LINE
  8
0
 62
     0
 10
176.544
 20
104.8
 30
0.0
 11
176.544
 21
103.799
 31
0.0
  0
LINE
  8
0
 62
     0
 10
176.544
 20
103.799
 30
0.0
 11
175.745
 21
103.799
 31
0.0
  0
LINE
  8
0
 62
     0
 10
175.745
 20
103.799
 30
0.0
 11
175.745
 21
100.699
 31
0.0
  0
LINE
  8
0
 62
     0
 10
175.745
 20
100.699
 30
0.0
 11
176.544
 21
100.699
 31
0.0
  0
LINE
  8
0
 62
     0
 10
176.544
 20
100.699
 30
0.0
 11
176.544
 21
94.8986
 31
0.0
  0
LINE
  8
0
 62
     0
 10
176.544
 20
94.8986
 30
0.0
 11
175.745
 21
94.8986
 31
0.0
  0
LINE
  8
0
 62
     0
 10
175.745
 20
94.8986
 30
0.0
 11
175.745
 21
91.7995
 31
0.0
  0
LINE
  8
0
 62
     0
 10
175.745
 20
91.7995
 30
0.0
 11
176.544
 21
91.7995
 31
0.0
  0
LINE
  8
0
 62
     0
 10
176.544
 20
91.7995
 30
0.0
 11
176.544
 21
90.8004
 31
0.0
  0
LINE
  8
0
 62
     0
 10
176.544
 20
90.8004
 30
0.0
 11
190.544
 21
90.8004
 31
0.0
  0
LINE
  8
0
 62
     0
 10
190.544
 20
90.8004
 30
0.0
 11
190.544
 21
91.7995
 31
0.0
  0
LINE
  8
0
 62
     0
 10
190.544
 20
91.7995
 30
0.0
 11
191.345
 21
91.7995
 31
0.0
  0
LINE
  8
0
 62
     0
 10
191.345
 20
91.7995
 30
0.0
 11
191.345
 21
94.8986
 31
0.0
  0
LINE
  8
0
 62
     0
 10
191.345
 20
94.8986
 30
0.0
 11
190.544
 21
94.8986
 31
0.0
  0
LINE
  8
0
 62
     0
 10
190.544
 20
94.8986
 30
0.0
 11
190.544
 21
100.699
 31
0.0
  0
LINE
  8
0
 62
     0
 10
190.544
 20
100.699
 30
0.0
 11
191.345
 21
100.699
 31
0.0
  0
LINE
  8
0
 62
     0
 10
191.345
 20
100.699
 30
0.0
 11
191.345
 21
103.799
 31
0.0
  0
LINE
  8
0
 62
     0
 10
191.345
 20
103.799
 30
0.0
 11
190.544
 21
103.799
 31
0.0
  0
LINE
  8
0
 62
     0
 10
190.544
 20
103.799
 30
0.0
 11
190.544
 21
104.8
 31
0.0
  0
LINE
  8
0
 62
     0
 10
190.544
 20
104.8
 30
0.0
 11
176.544
 21
104.8
 31
0.0
  0
LINE
  8
0
 62
     0
 10
195.594
 20
104.8
 30
0.0
 11
195.594
 21
103.799
 31
0.0
  0
LINE
  8
0
 62
     0
 10
195.594
 20
103.799
 30
0.0
 11
194.795
 21
103.799
 31
0.0
  0
LINE
  8
0
 62
     0
 10
194.795
 20
103.799
 30
0.0
 11
194.795
 21
100.699
 31
0.0
  0
LINE
  8
0
 62
     0
 10
194.795
 20
100.699
 30
0.0
 11
195.594
 21
100.699
 31
0.0
  0
LINE
  8
0
 62
     0
 10
195.594
 20
100.699
 30
0.0
 11
195.594
 21
94.8986
 31
0.0
  0
LINE
  8
0
 62
     0
 10
195.594
 20
94.8986
 30
0.0
 11
194.795
 21
94.8986
 31
0.0
  0
LINE
  8
0
 62
     0
 10
194.795
 20
94.8986
 30
0.0
 11
194.795
 21
91.7995
 31
0.0
  0
LINE
  8
0
 62
     0
 10
194.795
 20
91.7995
 30
0.0
 11
195.594
 21
91.7995
 31
0.0
  0
LINE
  8
0
 62
     0
 10
195.594
 20
91.7995
 30
0.0
 11
195.594
 21
90.8004
 31
0.0
  0
LINE
  8
0
 62
     0
 10
195.594
 20
90.8004
 30
0.0
 11
209.594
 21
90.8004
 31
0.0
  0
LINE
  8
0
 62
     0
 10
209.594
 20
90.8004
 30
0.0
 11
209.594
 21
91.7995
 31
0.0
  0
LINE
  8
0
 62
     0
 10
209.594
 20
91.7995
 30
0.0
 11
210.395
 21
91.7995
 31
0.0
  0
LINE
  8
0
 62
     0
 10
210.395
 20
91.7995
 30
0.0
 11
210.395
 21
94.8986
 31
0.0
  0
LINE
  8
0
 62
     0
 10
210.395
 20
94.8986
 30
0.0
 11
209.594
 21
94.8986
 31
0.0
  0
LINE
  8
0
 62
     0
 10
209.594
 20
94.8986
 30
0.0
 11
209.594
 21
100.699
 31
0.0
  0
LINE
  8
0
 62
     0
 10
209.594
 20
100.699
 30
0.0
 11
210.395
 21
100.699
 31
0.0
  0
LINE
  8
0
 62
     0
 10
210.395
 20
100.699
 30
0.0
 11
210.395
 21
103.799
 31
0.0
  0
LINE
  8
0
 62
     0
 10
210.395
 20
103.799
 30
0.0
 11
209.594
 21
103.799
 31
0.0
  0
LINE
  8
0
 62
     0
 10
209.594
 20
103.799
 30
0.0
 11
209.594
 21
104.8
 31
0.0
  0
LINE
  8
0
 62
     0
 10
209.594
 20
104.8
 30
0.0
 11
195.594
 21
104.8
 31
0.0
  0
LINE
  8
0
 62
     0
 10
214.644
 20
104.8
 30
0.0
 11
214.644
 21
103.799
 31
0.0
  0
LINE
  8
0
 62
     0
 10
214.644
 20
103.799
 30
0.0
 11
213.845
 21
103.799
 31
0.0
  0
LINE
  8
0
 62
     0
 10
213.845
 20
103.799
 30
0.0
 11
213.845
 21
100.699
 31
0.0
  0
LINE
  8
0
 62
     0
 10
213.845
 20
100.699
 30
0.0
 11
214.644
 21
100.699
 31
0.0
  0
LINE
  8
0
 62
     0
 10
214.644
 20
100.699
 30
0.0
 11
214.644
 21
94.8986
 31
0.0
  0
LINE
  8
0
 62
     0
 10
214.644
 20
94.8986
 30
0.0
 11
213.845
 21
94.8986
 31
0.0
  0
LINE
  8
0
 62
     0
 10
213.845
 20
94.8986
 30
0.0
 11
213.845
 21
91.7995
 31
0.0
  0
LINE
  8
0
 62
     0
 10
213.845
 20
91.7995
 30
0.0
 11
214.644
 21
91.7995
 31
0.0
  0
LINE
  8
0
 62
     0
 10
214.644
 20
91.7995
 30
0.0
 11
214.644
 21
90.8004
 31
0.0
  0
LINE
  8
0
 62
     0
 10
214.644
 20
90.8004
 30
0.0
 11
228.644
 21
90.8004
 31
0.0
  0
LINE
  8
0
 62
     0
 10
228.644
 20
90.8004
 30
0.0
 11
228.644
 21
91.7995
 31
0.0
  0
LINE
  8
0
 62
     0
 10
228.644
 20
91.7995
 30
0.0
 11
229.445
 21
91.7995
 31
0.0
  0
LINE
  8
0
 62
     0
 10
229.445
 20
91.7995
 30
0.0
 11
229.445
 21
94.8986
 31
0.0
  0
LINE
  8
0
 62
     0
 10
229.445
 20
94.8986
 30
0.0
 11
228.644
 21
94.8986
 31
0.0
  0
LINE
  8
0
 62
     0
 10
228.644
 20
94.8986
 30
0.0
 11
228.644
 21
100.699
 31
0.0
  0
LINE
  8
0
 62
     0
 10
228.644
 20
100.699
 30
0.0
 11
229.445
 21
100.699
 31
0.0
  0
LINE
  8
0
 62
     0
 10
229.445
 20
100.699
 30
0.0
 11
229.445
 21
103.799
 31
0.0
  0
LINE
  8
0
 62
     0
 10
229.445
 20
103.799
 30
0.0
 11
228.644
 21
103.799
 31
0.0
  0
LINE
  8
0
 62
     0
 10
228.644
 20
103.799
 30
0.0
 11
228.644
 21
104.8
 31
0.0
  0
LINE
  8
0
 62
     0
 10
228.644
 20
104.8
 30
0.0
 11
214.644
 21
104.8
 31
0.0
  0
LINE
  8
0
 62
     0
 10
233.694
 20
104.8
 30
0.0
 11
233.694
 21
103.799
 31
0.0
  0
LINE
  8
0
 62
     0
 10
233.694
 20
103.799
 30
0.0
 11
232.895
 21
103.799
 31
0.0
  0
LINE
  8
0
 62
     0
 10
232.895
 20
103.799
 30
0.0
 11
232.895
 21
100.699
 31
0.0
  0
LINE
  8
0
 62
     0
 10
232.895
 20
100.699
 30
0.0
 11
233.694
 21
100.699
 31
0.0
  0
LINE
  8
0
 62
     0
 10
233.694
 20
100.699
 30
0.0
 11
233.694
 21
94.8986
 31
0.0
  0
LINE
  8
0
 62
     0
 10
233.694
 20
94.8986
 30
0.0
 11
232.895
 21
94.8986
 31
0.0
  0
LINE
  8
0
 62
     0
 10
232.895
 20
94.8986
 30
0.0
 11
232.895
 21
91.7995
 31
0.0
  0
LINE
  8
0
 62
     0
 10
232.895
 20
91.7995
 30
0.0
 11
233.694
 21
91.7995
 31
0.0
  0
LINE
  8
0
 62
     0
 10
233.694
 20
91.7995
 30
0.0
 11
233.694
 21
90.8004
 31
0.0
  0
LINE
  8
0
 62
     0
 10
233.694
 20
90.8004
 30
0.0
 11
247.694
 21
90.8004
 31
0.0
  0
LINE
  8
0
 62
     0
 10
247.694
 20
90.8004
 30
0.0
 11
247.694
 21
91.7995
 31
0.0
  0
LINE
  8
0
 62
     0
 10
247.694
 20
91.7995
 30
0.0
 11
248.495
 21
91.7995
 31
0.0
  0
LINE
  8
0
 62
     0
 10
248.495
 20
91.7995
 30
0.0
 11
248.495
 21
94.8986
 31
0.0
  0
LINE
  8
0
 62
     0
 10
248.495
 20
94.8986
 30
0.0
 11
247.694
 21
94.8986
 31
0.0
  0
LINE
  8
0
 62
     0
 10
247.694
 20
94.8986
 30
0.0
 11
247.694
 21
100.699
 31
0.0
  0
LINE
  8
0
 62
     0
 10
247.694
 20
100.699
 30
0.0
 11
248.495
 21
100.699
 31
0.0
  0
LINE
  8
0
 62
     0
 10
248.495
 20
100.699
 30
0.0
 11
248.495
 21
103.799
 31
0.0
  0
LINE
  8
0
 62
     0
 10
248.495
 20
103.799
 30
0.0
 11
247.694
 21
103.799
 31
0.0
  0
LINE
  8
0
 62
     0
 10
247.694
 20
103.799
 30
0.0
 11
247.694
 21
104.8
 31
0.0
  0
LINE
  8
0
 62
     0
 10
247.694
 20
104.8
 30
0.0
 11
233.694
 21
104.8
 31
0.0
  0
LINE
  8
0
 62
     0
 10
252.743
 20
104.8
 30
0.0
 11
252.743
 21
103.799
 31
0.0
  0
LINE
  8
0
 62
     0
 10
252.743
 20
103.799
 30
0.0
 11
251.945
 21
103.799
 31
0.0
  0
LINE
  8
0
 62
     0
 10
251.945
 20
103.799
 30
0.0
 11
251.945
 21
100.699
 31
0.0
  0
LINE
  8
0
 62
     0
 10
251.945
 20
100.699
 30
0.0
 11
252.743
 21
100.699
 31
0.0
  0
LINE
  8
0
 62
     0
 10
252.743
 20
100.699
 30
0.0
 11
252.743
 21
94.8986
 31
0.0
  0
LINE
  8
0
 62
     0
 10
252.743
 20
94.8986
 30
0.0
 11
251.945
 21
94.8986
 31
0.0
  0
LINE
  8
0
 62
     0
 10
251.945
 20
94.8986
 30
0.0
 11
251.945
 21
91.7995
 31
0.0
  0
LINE
  8
0
 62
     0
 10
251.945
 20
91.7995
 30
0.0
 11
252.743
 21
91.7995
 31
0.0
  0
LINE
  8
0
 62
     0
 10
252.743
 20
91.7995
 30
0.0
 11
252.743
 21
90.8004
 31
0.0
  0
LINE
  8
0
 62
     0
 10
252.743
 20
90.8004
 30
0.0
 11
266.744
 21
90.8004
 31
0.0
  0
LINE
  8
0
 62
     0
 10
266.744
 20
90.8004
 30
0.0
 11
266.744
 21
91.7995
 31
0.0
  0
LINE
  8
0
 62
     0
 10
266.744
 20
91.7995
 30
0.0
 11
267.545
 21
91.7995
 31
0.0
  0
LINE
  8
0
 62
     0
 10
267.545
 20
91.7995
 30
0.0
 11
267.545
 21
94.8986
 31
0.0
  0
LINE
  8
0
 62
     0
 10
267.545
 20
94.8986
 30
0.0
 11
266.744
 21
94.8986
 31
0.0
  0
LINE
  8
0
 62
     0
 10
266.744
 20
94.8986
 30
0.0
 11
266.744
 21
100.699
 31
0.0
  0
LINE
  8
0
 62
     0
 10
266.744
 20
100.699
 30
0.0
 11
267.545
 21
100.699
 31
0.0
  0
LINE
  8
0
 62
     0
 10
267.545
 20
100.699
 30
0.0
 11
267.545
 21
103.799
 31
0.0
  0
LINE
  8
0
 62
     0
 10
267.545
 20
103.799
 30
0.0
 11
266.744
 21
103.799
 31
0.0
  0
LINE
  8
0
 62
     0
 10
266.744
 20
103.799
 30
0.0
 11
266.744
 21
104.8
 31
0.0
  0
LINE
  8
0
 62
     0
 10
266.744
 20
104.8
 30
0.0
 11
252.743
 21
104.8
 31
0.0
  0
LINE
  8
0
 62
     0
 10
276.557
 20
104.8
 30
0.0
 11
276.557
 21
103.799
 31
0.0
  0
LINE
  8
0
 62
     0
 10
276.557
 20
103.799
 30
0.0
 11
275.757
 21
103.799
 31
0.0
  0
LINE
  8
0
 62
     0
 10
275.757
 20
103.799
 30
0.0
 11
275.757
 21
100.699
 31
0.0
  0
LINE
  8
0
 62
     0
 10
275.757
 20
100.699
 30
0.0
 11
276.557
 21
100.699
 31
0.0
  0
LINE
  8
0
 62
     0
 10
276.557
 20
100.699
 30
0.0
 11
276.557
 21
94.8986
 31
0.0
  0
LINE
  8
0
 62
     0
 10
276.557
 20
94.8986
 30
0.0
 11
275.757
 21
94.8986
 31
0.0
  0
LINE
  8
0
 62
     0
 10
275.757
 20
94.8986
 30
0.0
 11
275.757
 21
91.7995
 31
0.0
  0
LINE
  8
0
 62
     0
 10
275.757
 20
91.7995
 30
0.0
 11
276.557
 21
91.7995
 31
0.0
  0
LINE
  8
0
 62
     0
 10
276.557
 20
91.7995
 30
0.0
 11
276.557
 21
90.8004
 31
0.0
  0
LINE
  8
0
 62
     0
 10
276.557
 20
90.8004
 30
0.0
 11
290.557
 21
90.8004
 31
0.0
  0
LINE
  8
0
 62
     0
 10
290.557
 20
90.8004
 30
0.0
 11
290.557
 21
91.7995
 31
0.0
  0
LINE
  8
0
 62
     0
 10
290.557
 20
91.7995
 30
0.0
 11
291.357
 21
91.7995
 31
0.0
  0
LINE
  8
0
 62
     0
 10
291.357
 20
91.7995
 30
0.0
 11
291.357
 21
94.8986
 31
0.0
  0
LINE
  8
0
 62
     0
 10
291.357
 20
94.8986
 30
0.0
 11
290.557
 21
94.8986
 31
0.0
  0
LINE
  8
0
 62
     0
 10
290.557
 20
94.8986
 30
0.0
 11
290.557
 21
100.699
 31
0.0
  0
LINE
  8
0
 62
     0
 10
290.557
 20
100.699
 30
0.0
 11
291.357
 21
100.699
 31
0.0
  0
LINE
  8
0
 62
     0
 10
291.357
 20
100.699
 30
0.0
 11
291.357
 21
103.799
 31
0.0
  0
LINE
  8
0
 62
     0
 10
291.357
 20
103.799
 30
0.0
 11
290.557
 21
103.799
 31
0.0
  0
LINE
  8
0
 62
     0
 10
290.557
 20
103.799
 30
0.0
 11
290.557
 21
104.8
 31
0.0
  0
LINE
  8
0
 62
     0
 10
290.557
 20
104.8
 30
0.0
 11
276.557
 21
104.8
 31
0.0
  0
LINE
  8
0
 62
     0
 10
271.794
 20
123.85
 30
0.0
 11
271.794
 21
122.849
 31
0.0
  0
LINE
  8
0
 62
     0
 10
271.794
 20
122.849
 30
0.0
 11
270.995
 21
122.849
 31
0.0
  0
LINE
  8
0
 62
     0
 10
270.995
 20
122.849
 30
0.0
 11
270.995
 21
119.749
 31
0.0
  0
LINE
  8
0
 62
     0
 10
270.995
 20
119.749
 30
0.0
 11
271.794
 21
119.749
 31
0.0
  0
LINE
  8
0
 62
     0
 10
271.794
 20
119.749
 30
0.0
 11
271.794
 21
119.149
 31
0.0
  0
LINE
  8
0
 62
     0
 10
271.794
 20
119.149
 30
0.0
 11
270.269
 21
119.149
 31
0.0
  0
LINE
  8
0
 62
     0
 10
270.269
 20
119.149
 30
0.0
 11
270.269
 21
122.381
 31
0.0
  0
LINE
  8
0
 62
     0
 10
270.269
 20
122.381
 30
0.0
 11
263.519
 21
122.381
 31
0.0
  0
LINE
  8
0
 62
     0
 10
263.519
 20
122.381
 30
0.0
 11
263.519
 21
119.149
 31
0.0
  0
LINE
  8
0
 62
     0
 10
263.519
 20
119.149
 30
0.0
 11
262.695
 21
119.149
 31
0.0
  0
LINE
  8
0
 62
     0
 10
262.695
 20
119.149
 30
0.0
 11
262.695
 21
116.349
 31
0.0
  0
LINE
  8
0
 62
     0
 10
262.695
 20
116.349
 30
0.0
 11
263.519
 21
116.349
 31
0.0
  0
LINE
  8
0
 62
     0
 10
263.519
 20
116.349
 30
0.0
 11
263.519
 21
110.078
 31
0.0
  0
LINE
  8
0
 62
     0
 10
263.519
 20
110.078
 30
0.0
 11
265.245
 21
110.078
 31
0.0
  0
LINE
  8
0
 62
     0
 10
265.245
 20
110.078
 30
0.0
 11
265.245
 21
108.88
 31
0.0
  0
LINE
  8
0
 62
     0
 10
265.245
 20
108.88
 30
0.0
 11
268.545
 21
108.88
 31
0.0
  0
LINE
  8
0
 62
     0
 10
268.545
 20
108.88
 30
0.0
 11
268.545
 21
110.078
 31
0.0
  0
LINE
  8
0
 62
     0
 10
268.545
 20
110.078
 30
0.0
 11
270.269
 21
110.078
 31
0.0
  0
LINE
  8
0
 62
     0
 10
270.269
 20
110.078
 30
0.0
 11
270.269
 21
114.548
 31
0.0
  0
LINE
  8
0
 62
     0
 10
270.269
 20
114.548
 30
0.0
 11
271.794
 21
114.548
 31
0.0
  0
LINE
  8
0
 62
     0
 10
271.794
 20
114.548
 30
0.0
 11
271.794
 21
113.949
 31
0.0
  0
LINE
  8
0
 62
     0
 10
271.794
 20
113.949
 30
0.0
 11
270.995
 21
113.949
 31
0.0
  0
LINE
  8
0
 62
     0
 10
270.995
 20
113.949
 30
0.0
 11
270.995
 21
110.849
 31
0.0
  0
LINE
  8
0
 62
     0
 10
270.995
 20
110.849
 30
0.0
 11
271.794
 21
110.849
 31
0.0
  0
LINE
  8
0
 62
     0
 10
271.794
 20
110.849
 30
0.0
 11
271.794
 21
109.85
 31
0.0
  0
LINE
  8
0
 62
     0
 10
271.794
 20
109.85
 30
0.0
 11
285.794
 21
109.85
 31
0.0
  0
LINE
  8
0
 62
     0
 10
285.794
 20
109.85
 30
0.0
 11
285.794
 21
110.849
 31
0.0
  0
LINE
  8
0
 62
     0
 10
285.794
 20
110.849
 30
0.0
 11
286.595
 21
110.849
 31
0.0
  0
LINE
  8
0
 62
     0
 10
286.595
 20
110.849
 30
0.0
 11
286.595
 21
113.949
 31
0.0
  0
LINE
  8
0
 62
     0
 10
286.595
 20
113.949
 30
0.0
 11
285.794
 21
113.949
 31
0.0
  0
LINE
  8
0
 62
     0
 10
285.794
 20
113.949
 30
0.0
 11
285.794
 21
114.548
 31
0.0
  0
LINE
  8
0
 62
     0
 10
285.794
 20
114.548
 30
0.0
 11
287.32
 21
114.548
 31
0.0
  0
LINE
  8
0
 62
     0
 10
287.32
 20
114.548
 30
0.0
 11
287.32
 21
110.078
 31
0.0
  0
LINE
  8
0
 62
     0
 10
287.32
 20
110.078
 30
0.0
 11
289.045
 21
110.078
 31
0.0
  0
LINE
  8
0
 62
     0
 10
289.045
 20
110.078
 30
0.0
 11
289.045
 21
108.88
 31
0.0
  0
LINE
  8
0
 62
     0
 10
289.045
 20
108.88
 30
0.0
 11
292.345
 21
108.88
 31
0.0
  0
LINE
  8
0
 62
     0
 10
292.345
 20
108.88
 30
0.0
 11
292.345
 21
110.078
 31
0.0
  0
LINE
  8
0
 62
     0
 10
292.345
 20
110.078
 30
0.0
 11
294.069
 21
110.078
 31
0.0
  0
LINE
  8
0
 62
     0
 10
294.069
 20
110.078
 30
0.0
 11
294.069
 21
116.349
 31
0.0
  0
LINE
  8
0
 62
     0
 10
294.069
 20
116.349
 30
0.0
 11
294.895
 21
116.349
 31
0.0
  0
LINE
  8
0
 62
     0
 10
294.895
 20
116.349
 30
0.0
 11
294.895
 21
119.149
 31
0.0
  0
LINE
  8
0
 62
     0
 10
294.895
 20
119.149
 30
0.0
 11
294.069
 21
119.149
 31
0.0
  0
LINE
  8
0
 62
     0
 10
294.069
 20
119.149
 30
0.0
 11
294.069
 21
122.381
 31
0.0
  0
LINE
  8
0
 62
     0
 10
294.069
 20
122.381
 30
0.0
 11
287.32
 21
122.381
 31
0.0
  0
LINE
  8
0
 62
     0
 10
287.32
 20
122.381
 30
0.0
 11
287.32
 21
119.149
 31
0.0
  0
LINE
  8
0
 62
     0
 10
287.32
 20
119.149
 30
0.0
 11
285.794
 21
119.149
 31
0.0
  0
LINE
  8
0
 62
     0
 10
285.794
 20
119.149
 30
0.0
 11
285.794
 21
119.749
 31
0.0
  0
LINE
  8
0
 62
     0
 10
285.794
 20
119.749
 30
0.0
 11
286.595
 21
119.749
 31
0.0
  0
LINE
  8
0
 62
     0
 10
286.595
 20
119.749
 30
0.0
 11
286.595
 21
122.849
 31
0.0
  0
LINE
  8
0
 62
     0
 10
286.595
 20
122.849
 30
0.0
 11
285.794
 21
122.849
 31
0.0
  0
LINE
  8
0
 62
     0
 10
285.794
 20
122.849
 30
0.0
 11
285.794
 21
123.85
 31
0.0
  0
LINE
  8
0
 62
     0
 10
285.794
 20
123.85
 30
0.0
 11
271.794
 21
123.85
 31
0.0
  0
LINE
  8
0
 62
     0
 10
14.6196
 20
123.85
 30
0.0
 11
14.6196
 21
122.849
 31
0.0
  0
LINE
  8
0
 62
     0
 10
14.6196
 20
122.849
 30
0.0
 11
13.819
 21
122.849
 31
0.0
  0
LINE
  8
0
 62
     0
 10
13.819
 20
122.849
 30
0.0
 11
13.819
 21
119.749
 31
0.0
  0
LINE
  8
0
 62
     0
 10
13.819
 20
119.749
 30
0.0
 11
14.6196
 21
119.749
 31
0.0
  0
LINE
  8
0
 62
     0
 10
14.6196
 20
119.749
 30
0.0
 11
14.6196
 21
113.949
 31
0.0
  0
LINE
  8
0
 62
     0
 10
14.6196
 20
113.949
 30
0.0
 11
13.819
 21
113.949
 31
0.0
  0
LINE
  8
0
 62
     0
 10
13.819
 20
113.949
 30
0.0
 11
13.819
 21
110.849
 31
0.0
  0
LINE
  8
0
 62
     0
 10
13.819
 20
110.849
 30
0.0
 11
14.6196
 21
110.849
 31
0.0
  0
LINE
  8
0
 62
     0
 10
14.6196
 20
110.849
 30
0.0
 11
14.6196
 21
109.85
 31
0.0
  0
LINE
  8
0
 62
     0
 10
14.6196
 20
109.85
 30
0.0
 11
28.6191
 21
109.85
 31
0.0
  0
LINE
  8
0
 62
     0
 10
28.6191
 20
109.85
 30
0.0
 11
28.6191
 21
110.849
 31
0.0
  0
LINE
  8
0
 62
     0
 10
28.6191
 20
110.849
 30
0.0
 11
29.4184
 21
110.849
 31
0.0
  0
LINE
  8
0
 62
     0
 10
29.4184
 20
110.849
 30
0.0
 11
29.4184
 21
113.949
 31
0.0
  0
LINE
  8
0
 62
     0
 10
29.4184
 20
113.949
 30
0.0
 11
28.6191
 21
113.949
 31
0.0
  0
LINE
  8
0
 62
     0
 10
28.6191
 20
113.949
 30
0.0
 11
28.6191
 21
119.749
 31
0.0
  0
LINE
  8
0
 62
     0
 10
28.6191
 20
119.749
 30
0.0
 11
29.4184
 21
119.749
 31
0.0
  0
LINE
  8
0
 62
     0
 10
29.4184
 20
119.749
 30
0.0
 11
29.4184
 21
122.849
 31
0.0
  0
LINE
  8
0
 62
     0
 10
29.4184
 20
122.849
 30
0.0
 11
28.6191
 21
122.849
 31
0.0
  0
LINE
  8
0
 62
     0
 10
28.6191
 20
122.849
 30
0.0
 11
28.6191
 21
123.85
 31
0.0
  0
LINE
  8
0
 62
     0
 10
28.6191
 20
123.85
 30
0.0
 11
14.6196
 21
123.85
 31
0.0
  0
LINE
  8
0
 62
     0
 10
33.6696
 20
123.85
 30
0.0
 11
33.6696
 21
122.849
 31
0.0
  0
LINE
  8
0
 62
     0
 10
33.6696
 20
122.849
 30
0.0
 11
32.8704
 21
122.849
 31
0.0
  0
LINE
  8
0
 62
     0
 10
32.8704
 20
122.849
 30
0.0
 11
32.8704
 21
119.749
 31
0.0
  0
LINE
  8
0
 62
     0
 10
32.8704
 20
119.749
 30
0.0
 11
33.6696
 21
119.749
 31
0.0
  0
LINE
  8
0
 62
     0
 10
33.6696
 20
119.749
 30
0.0
 11
33.6696
 21
113.949
 31
0.0
  0
LINE
  8
0
 62
     0
 10
33.6696
 20
113.949
 30
0.0
 11
32.8704
 21
113.949
 31
0.0
  0
LINE
  8
0
 62
     0
 10
32.8704
 20
113.949
 30
0.0
 11
32.8704
 21
110.849
 31
0.0
  0
LINE
  8
0
 62
     0
 10
32.8704
 20
110.849
 30
0.0
 11
33.6696
 21
110.849
 31
0.0
  0
LINE
  8
0
 62
     0
 10
33.6696
 20
110.849
 30
0.0
 11
33.6696
 21
109.85
 31
0.0
  0
LINE
  8
0
 62
     0
 10
33.6696
 20
109.85
 30
0.0
 11
47.6691
 21
109.85
 31
0.0
  0
LINE
  8
0
 62
     0
 10
47.6691
 20
109.85
 30
0.0
 11
47.6691
 21
110.849
 31
0.0
  0
LINE
  8
0
 62
     0
 10
47.6691
 20
110.849
 30
0.0
 11
48.4699
 21
110.849
 31
0.0
  0
LINE
  8
0
 62
     0
 10
48.4699
 20
110.849
 30
0.0
 11
48.4699
 21
113.949
 31
0.0
  0
LINE
  8
0
 62
     0
 10
48.4699
 20
113.949
 30
0.0
 11
47.6691
 21
113.949
 31
0.0
  0
LINE
  8
0
 62
     0
 10
47.6691
 20
113.949
 30
0.0
 11
47.6691
 21
119.749
 31
0.0
  0
LINE
  8
0
 62
     0
 10
47.6691
 20
119.749
 30
0.0
 11
48.4699
 21
119.749
 31
0.0
  0
LINE
  8
0
 62
     0
 10
48.4699
 20
119.749
 30
0.0
 11
48.4699
 21
122.849
 31
0.0
  0
LINE
  8
0
 62
     0
 10
48.4699
 20
122.849
 30
0.0
 11
47.6691
 21
122.849
 31
0.0
  0
LINE
  8
0
 62
     0
 10
47.6691
 20
122.849
 30
0.0
 11
47.6691
 21
123.85
 31
0.0
  0
LINE
  8
0
 62
     0
 10
47.6691
 20
123.85
 30
0.0
 11
33.6696
 21
123.85
 31
0.0
  0
LINE
  8
0
 62
     0
 10
52.7195
 20
123.85
 30
0.0
 11
52.7195
 21
122.849
 31
0.0
  0
LINE
  8
0
 62
     0
 10
52.7195
 20
122.849
 30
0.0
 11
51.9204
 21
122.849
 31
0.0
  0
LINE
  8
0
 62
     0
 10
51.9204
 20
122.849
 30
0.0
 11
51.9204
 21
119.749
 31
0.0
  0
LINE
  8
0
 62
     0
 10
51.9204
 20
119.749
 30
0.0
 11
52.7195
 21
119.749
 31
0.0
  0
LINE
  8
0
 62
     0
 10
52.7195
 20
119.749
 30
0.0
 11
52.7195
 21
113.949
 31
0.0
  0
LINE
  8
0
 62
     0
 10
52.7195
 20
113.949
 30
0.0
 11
51.9204
 21
113.949
 31
0.0
  0
LINE
  8
0
 62
     0
 10
51.9204
 20
113.949
 30
0.0
 11
51.9204
 21
110.849
 31
0.0
  0
LINE
  8
0
 62
     0
 10
51.9204
 20
110.849
 30
0.0
 11
52.7195
 21
110.849
 31
0.0
  0
LINE
  8
0
 62
     0
 10
52.7195
 20
110.849
 30
0.0
 11
52.7195
 21
109.85
 31
0.0
  0
LINE
  8
0
 62
     0
 10
52.7195
 20
109.85
 30
0.0
 11
66.7191
 21
109.85
 31
0.0
  0
LINE
  8
0
 62
     0
 10
66.7191
 20
109.85
 30
0.0
 11
66.7191
 21
110.849
 31
0.0
  0
LINE
  8
0
 62
     0
 10
66.7191
 20
110.849
 30
0.0
 11
67.5199
 21
110.849
 31
0.0
  0
LINE
  8
0
 62
     0
 10
67.5199
 20
110.849
 30
0.0
 11
67.5199
 21
113.949
 31
0.0
  0
LINE
  8
0
 62
     0
 10
67.5199
 20
113.949
 30
0.0
 11
66.7191
 21
113.949
 31
0.0
  0
LINE
  8
0
 62
     0
 10
66.7191
 20
113.949
 30
0.0
 11
66.7191
 21
119.749
 31
0.0
  0
LINE
  8
0
 62
     0
 10
66.7191
 20
119.749
 30
0.0
 11
67.5199
 21
119.749
 31
0.0
  0
LINE
  8
0
 62
     0
 10
67.5199
 20
119.749
 30
0.0
 11
67.5199
 21
122.849
 31
0.0
  0
LINE
  8
0
 62
     0
 10
67.5199
 20
122.849
 30
0.0
 11
66.7191
 21
122.849
 31
0.0
  0
LINE
  8
0
 62
     0
 10
66.7191
 20
122.849
 30
0.0
 11
66.7191
 21
123.85
 31
0.0
  0
LINE
  8
0
 62
     0
 10
66.7191
 20
123.85
 30
0.0
 11
52.7195
 21
123.85
 31
0.0
  0
LINE
  8
0
 62
     0
 10
71.7695
 20
123.85
 30
0.0
 11
71.7695
 21
122.849
 31
0.0
  0
LINE
  8
0
 62
     0
 10
71.7695
 20
122.849
 30
0.0
 11
70.9704
 21
122.849
 31
0.0
  0
LINE
  8
0
 62
     0
 10
70.9704
 20
122.849
 30
0.0
 11
70.9704
 21
119.749
 31
0.0
  0
LINE
  8
0
 62
     0
 10
70.9704
 20
119.749
 30
0.0
 11
71.7695
 21
119.749
 31
0.0
  0
LINE
  8
0
 62
     0
 10
71.7695
 20
119.749
 30
0.0
 11
71.7695
 21
113.949
 31
0.0
  0
LINE
  8
0
 62
     0
 10
71.7695
 20
113.949
 30
0.0
 11
70.9704
 21
113.949
 31
0.0
  0
LINE
  8
0
 62
     0
 10
70.9704
 20
113.949
 30
0.0
 11
70.9704
 21
110.849
 31
0.0
  0
LINE
  8
0
 62
     0
 10
70.9704
 20
110.849
 30
0.0
 11
71.7695
 21
110.849
 31
0.0
  0
LINE
  8
0
 62
     0
 10
71.7695
 20
110.849
 30
0.0
 11
71.7695
 21
109.85
 31
0.0
  0
LINE
  8
0
 62
     0
 10
71.7695
 20
109.85
 30
0.0
 11
85.7691
 21
109.85
 31
0.0
  0
LINE
  8
0
 62
     0
 10
85.7691
 20
109.85
 30
0.0
 11
85.7691
 21
110.849
 31
0.0
  0
LINE
  8
0
 62
     0
 10
85.7691
 20
110.849
 30
0.0
 11
86.5699
 21
110.849
 31
0.0
  0
LINE
  8
0
 62
     0
 10
86.5699
 20
110.849
 30
0.0
 11
86.5699
 21
113.949
 31
0.0
  0
LINE
  8
0
 62
     0
 10
86.5699
 20
113.949
 30
0.0
 11
85.7691
 21
113.949
 31
0.0
  0
LINE
  8
0
 62
     0
 10
85.7691
 20
113.949
 30
0.0
 11
85.7691
 21
119.749
 31
0.0
  0
LINE
  8
0
 62
     0
 10
85.7691
 20
119.749
 30
0.0
 11
86.5699
 21
119.749
 31
0.0
  0
LINE
  8
0
 62
     0
 10
86.5699
 20
119.749
 30
0.0
 11
86.5699
 21
122.849
 31
0.0
  0
LINE
  8
0
 62
     0
 10
86.5699
 20
122.849
 30
0.0
 11
85.7691
 21
122.849
 31
0.0
  0
LINE
  8
0
 62
     0
 10
85.7691
 20
122.849
 30
0.0
 11
85.7691
 21
123.85
 31
0.0
  0
LINE
  8
0
 62
     0
 10
85.7691
 20
123.85
 30
0.0
 11
71.7695
 21
123.85
 31
0.0
  0
LINE
  8
0
 62
     0
 10
90.8195
 20
123.85
 30
0.0
 11
90.8195
 21
122.849
 31
0.0
  0
LINE
  8
0
 62
     0
 10
90.8195
 20
122.849
 30
0.0
 11
90.0204
 21
122.849
 31
0.0
  0
LINE
  8
0
 62
     0
 10
90.0204
 20
122.849
 30
0.0
 11
90.0204
 21
119.749
 31
0.0
  0
LINE
  8
0
 62
     0
 10
90.0204
 20
119.749
 30
0.0
 11
90.8195
 21
119.749
 31
0.0
  0
LINE
  8
0
 62
     0
 10
90.8195
 20
119.749
 30
0.0
 11
90.8195
 21
113.949
 31
0.0
  0
LINE
  8
0
 62
     0
 10
90.8195
 20
113.949
 30
0.0
 11
90.0204
 21
113.949
 31
0.0
  0
LINE
  8
0
 62
     0
 10
90.0204
 20
113.949
 30
0.0
 11
90.0204
 21
110.849
 31
0.0
  0
LINE
  8
0
 62
     0
 10
90.0204
 20
110.849
 30
0.0
 11
90.8195
 21
110.849
 31
0.0
  0
LINE
  8
0
 62
     0
 10
90.8195
 20
110.849
 30
0.0
 11
90.8195
 21
109.85
 31
0.0
  0
LINE
  8
0
 62
     0
 10
90.8195
 20
109.85
 30
0.0
 11
104.819
 21
109.85
 31
0.0
  0
LINE
  8
0
 62
     0
 10
104.819
 20
109.85
 30
0.0
 11
104.819
 21
110.849
 31
0.0
  0
LINE
  8
0
 62
     0
 10
104.819
 20
110.849
 30
0.0
 11
105.618
 21
110.849
 31
0.0
  0
LINE
  8
0
 62
     0
 10
105.618
 20
110.849
 30
0.0
 11
105.618
 21
113.949
 31
0.0
  0
LINE
  8
0
 62
     0
 10
105.618
 20
113.949
 30
0.0
 11
104.819
 21
113.949
 31
0.0
  0
LINE
  8
0
 62
     0
 10
104.819
 20
113.949
 30
0.0
 11
104.819
 21
119.749
 31
0.0
  0
LINE
  8
0
 62
     0
 10
104.819
 20
119.749
 30
0.0
 11
105.618
 21
119.749
 31
0.0
  0
LINE
  8
0
 62
     0
 10
105.618
 20
119.749
 30
0.0
 11
105.618
 21
122.849
 31
0.0
  0
LINE
  8
0
 62
     0
 10
105.618
 20
122.849
 30
0.0
 11
104.819
 21
122.849
 31
0.0
  0
LINE
  8
0
 62
     0
 10
104.819
 20
122.849
 30
0.0
 11
104.819
 21
123.85
 31
0.0
  0
LINE
  8
0
 62
     0
 10
104.819
 20
123.85
 30
0.0
 11
90.8195
 21
123.85
 31
0.0
  0
LINE
  8
0
 62
     0
 10
109.868
 20
123.85
 30
0.0
 11
109.868
 21
122.849
 31
0.0
  0
LINE
  8
0
 62
     0
 10
109.868
 20
122.849
 30
0.0
 11
109.07
 21
122.849
 31
0.0
  0
LINE
  8
0
 62
     0
 10
109.07
 20
122.849
 30
0.0
 11
109.07
 21
119.749
 31
0.0
  0
LINE
  8
0
 62
     0
 10
109.07
 20
119.749
 30
0.0
 11
109.868
 21
119.749
 31
0.0
  0
LINE
  8
0
 62
     0
 10
109.868
 20
119.749
 30
0.0
 11
109.868
 21
113.949
 31
0.0
  0
LINE
  8
0
 62
     0
 10
109.868
 20
113.949
 30
0.0
 11
109.07
 21
113.949
 31
0.0
  0
LINE
  8
0
 62
     0
 10
109.07
 20
113.949
 30
0.0
 11
109.07
 21
110.849
 31
0.0
  0
LINE
  8
0
 62
     0
 10
109.07
 20
110.849
 30
0.0
 11
109.868
 21
110.849
 31
0.0
  0
LINE
  8
0
 62
     0
 10
109.868
 20
110.849
 30
0.0
 11
109.868
 21
109.85
 31
0.0
  0
LINE
  8
0
 62
     0
 10
109.868
 20
109.85
 30
0.0
 11
123.869
 21
109.85
 31
0.0
  0
LINE
  8
0
 62
     0
 10
123.869
 20
109.85
 30
0.0
 11
123.869
 21
110.849
 31
0.0
  0
LINE
  8
0
 62
     0
 10
123.869
 20
110.849
 30
0.0
 11
124.668
 21
110.849
 31
0.0
  0
LINE
  8
0
 62
     0
 10
124.668
 20
110.849
 30
0.0
 11
124.668
 21
113.949
 31
0.0
  0
LINE
  8
0
 62
     0
 10
124.668
 20
113.949
 30
0.0
 11
123.869
 21
113.949
 31
0.0
  0
LINE
  8
0
 62
     0
 10
123.869
 20
113.949
 30
0.0
 11
123.869
 21
119.749
 31
0.0
  0
LINE
  8
0
 62
     0
 10
123.869
 20
119.749
 30
0.0
 11
124.668
 21
119.749
 31
0.0
  0
LINE
  8
0
 62
     0
 10
124.668
 20
119.749
 30
0.0
 11
124.668
 21
122.849
 31
0.0
  0
LINE
  8
0
 62
     0
 10
124.668
 20
122.849
 30
0.0
 11
123.869
 21
122.849
 31
0.0
  0
LINE
  8
0
 62
     0
 10
123.869
 20
122.849
 30
0.0
 11
123.869
 21
123.85
 31
0.0
  0
LINE
  8
0
 62
     0
 10
123.869
 20
123.85
 30
0.0
 11
109.868
 21
123.85
 31
0.0
  0
LINE
  8
0
 62
     0
 10
128.919
 20
123.85
 30
0.0
 11
128.919
 21
122.849
 31
0.0
  0
LINE
  8
0
 62
     0
 10
128.919
 20
122.849
 30
0.0
 11
128.119
 21
122.849
 31
0.0
  0
LINE
  8
0
 62
     0
 10
128.119
 20
122.849
 30
0.0
 11
128.119
 21
119.749
 31
0.0
  0
LINE
  8
0
 62
     0
 10
128.119
 20
119.749
 30
0.0
 11
128.919
 21
119.749
 31
0.0
  0
LINE
  8
0
 62
     0
 10
128.919
 20
119.749
 30
0.0
 11
128.919
 21
113.949
 31
0.0
  0
LINE
  8
0
 62
     0
 10
128.919
 20
113.949
 30
0.0
 11
128.119
 21
113.949
 31
0.0
  0
LINE
  8
0
 62
     0
 10
128.119
 20
113.949
 30
0.0
 11
128.119
 21
110.849
 31
0.0
  0
LINE
  8
0
 62
     0
 10
128.119
 20
110.849
 30
0.0
 11
128.919
 21
110.849
 31
0.0
  0
LINE
  8
0
 62
     0
 10
128.919
 20
110.849
 30
0.0
 11
128.919
 21
109.85
 31
0.0
  0
LINE
  8
0
 62
     0
 10
128.919
 20
109.85
 30
0.0
 11
142.919
 21
109.85
 31
0.0
  0
LINE
  8
0
 62
     0
 10
142.919
 20
109.85
 30
0.0
 11
142.919
 21
110.849
 31
0.0
  0
LINE
  8
0
 62
     0
 10
142.919
 20
110.849
 30
0.0
 11
143.72
 21
110.849
 31
0.0
  0
LINE
  8
0
 62
     0
 10
143.72
 20
110.849
 30
0.0
 11
143.72
 21
113.949
 31
0.0
  0
LINE
  8
0
 62
     0
 10
143.72
 20
113.949
 30
0.0
 11
142.919
 21
113.949
 31
0.0
  0
LINE
  8
0
 62
     0
 10
142.919
 20
113.949
 30
0.0
 11
142.919
 21
119.749
 31
0.0
  0
LINE
  8
0
 62
     0
 10
142.919
 20
119.749
 30
0.0
 11
143.72
 21
119.749
 31
0.0
  0
LINE
  8
0
 62
     0
 10
143.72
 20
119.749
 30
0.0
 11
143.72
 21
122.849
 31
0.0
  0
LINE
  8
0
 62
     0
 10
143.72
 20
122.849
 30
0.0
 11
142.919
 21
122.849
 31
0.0
  0
LINE
  8
0
 62
     0
 10
142.919
 20
122.849
 30
0.0
 11
142.919
 21
123.85
 31
0.0
  0
LINE
  8
0
 62
     0
 10
142.919
 20
123.85
 30
0.0
 11
128.919
 21
123.85
 31
0.0
  0
LINE
  8
0
 62
     0
 10
147.969
 20
123.85
 30
0.0
 11
147.969
 21
122.849
 31
0.0
  0
LINE
  8
0
 62
     0
 10
147.969
 20
122.849
 30
0.0
 11
147.17
 21
122.849
 31
0.0
  0
LINE
  8
0
 62
     0
 10
147.17
 20
122.849
 30
0.0
 11
147.17
 21
119.749
 31
0.0
  0
LINE
  8
0
 62
     0
 10
147.17
 20
119.749
 30
0.0
 11
147.969
 21
119.749
 31
0.0
  0
LINE
  8
0
 62
     0
 10
147.969
 20
119.749
 30
0.0
 11
147.969
 21
113.949
 31
0.0
  0
LINE
  8
0
 62
     0
 10
147.969
 20
113.949
 30
0.0
 11
147.17
 21
113.949
 31
0.0
  0
LINE
  8
0
 62
     0
 10
147.17
 20
113.949
 30
0.0
 11
147.17
 21
110.849
 31
0.0
  0
LINE
  8
0
 62
     0
 10
147.17
 20
110.849
 30
0.0
 11
147.969
 21
110.849
 31
0.0
  0
LINE
  8
0
 62
     0
 10
147.969
 20
110.849
 30
0.0
 11
147.969
 21
109.85
 31
0.0
  0
LINE
  8
0
 62
     0
 10
147.969
 20
109.85
 30
0.0
 11
161.969
 21
109.85
 31
0.0
  0
LINE
  8
0
 62
     0
 10
161.969
 20
109.85
 30
0.0
 11
161.969
 21
110.849
 31
0.0
  0
LINE
  8
0
 62
     0
 10
161.969
 20
110.849
 30
0.0
 11
162.77
 21
110.849
 31
0.0
  0
LINE
  8
0
 62
     0
 10
162.77
 20
110.849
 30
0.0
 11
162.77
 21
113.949
 31
0.0
  0
LINE
  8
0
 62
     0
 10
162.77
 20
113.949
 30
0.0
 11
161.969
 21
113.949
 31
0.0
  0
LINE
  8
0
 62
     0
 10
161.969
 20
113.949
 30
0.0
 11
161.969
 21
119.749
 31
0.0
  0
LINE
  8
0
 62
     0
 10
161.969
 20
119.749
 30
0.0
 11
162.77
 21
119.749
 31
0.0
  0
LINE
  8
0
 62
     0
 10
162.77
 20
119.749
 30
0.0
 11
162.77
 21
122.849
 31
0.0
  0
LINE
  8
0
 62
     0
 10
162.77
 20
122.849
 30
0.0
 11
161.969
 21
122.849
 31
0.0
  0
LINE
  8
0
 62
     0
 10
161.969
 20
122.849
 30
0.0
 11
161.969
 21
123.85
 31
0.0
  0
LINE
  8
0
 62
     0
 10
161.969
 20
123.85
 30
0.0
 11
147.969
 21
123.85
 31
0.0
  0
LINE
  8
0
 62
     0
 10
167.019
 20
123.85
 30
0.0
 11
167.019
 21
122.849
 31
0.0
  0
LINE
  8
0
 62
     0
 10
167.019
 20
122.849
 30
0.0
 11
166.22
 21
122.849
 31
0.0
  0
LINE
  8
0
 62
     0
 10
166.22
 20
122.849
 30
0.0
 11
166.22
 21
119.749
 31
0.0
  0
LINE
  8
0
 62
     0
 10
166.22
 20
119.749
 30
0.0
 11
167.019
 21
119.749
 31
0.0
  0
LINE
  8
0
 62
     0
 10
167.019
 20
119.749
 30
0.0
 11
167.019
 21
113.949
 31
0.0
  0
LINE
  8
0
 62
     0
 10
167.019
 20
113.949
 30
0.0
 11
166.22
 21
113.949
 31
0.0
  0
LINE
  8
0
 62
     0
 10
166.22
 20
113.949
 30
0.0
 11
166.22
 21
110.849
 31
0.0
  0
LINE
  8
0
 62
     0
 10
166.22
 20
110.849
 30
0.0
 11
167.019
 21
110.849
 31
0.0
  0
LINE
  8
0
 62
     0
 10
167.019
 20
110.849
 30
0.0
 11
167.019
 21
109.85
 31
0.0
  0
LINE
  8
0
 62
     0
 10
167.019
 20
109.85
 30
0.0
 11
181.019
 21
109.85
 31
0.0
  0
LINE
  8
0
 62
     0
 10
181.019
 20
109.85
 30
0.0
 11
181.019
 21
110.849
 31
0.0
  0
LINE
  8
0
 62
     0
 10
181.019
 20
110.849
 30
0.0
 11
181.82
 21
110.849
 31
0.0
  0
LINE
  8
0
 62
     0
 10
181.82
 20
110.849
 30
0.0
 11
181.82
 21
113.949
 31
0.0
  0
LINE
  8
0
 62
     0
 10
181.82
 20
113.949
 30
0.0
 11
181.019
 21
113.949
 31
0.0
  0
LINE
  8
0
 62
     0
 10
181.019
 20
113.949
 30
0.0
 11
181.019
 21
119.749
 31
0.0
  0
LINE
  8
0
 62
     0
 10
181.019
 20
119.749
 30
0.0
 11
181.82
 21
119.749
 31
0.0
  0
LINE
  8
0
 62
     0
 10
181.82
 20
119.749
 30
0.0
 11
181.82
 21
122.849
 31
0.0
  0
LINE
  8
0
 62
     0
 10
181.82
 20
122.849
 30
0.0
 11
181.019
 21
122.849
 31
0.0
  0
LINE
  8
0
 62
     0
 10
181.019
 20
122.849
 30
0.0
 11
181.019
 21
123.85
 31
0.0
  0
LINE
  8
0
 62
     0
 10
181.019
 20
123.85
 30
0.0
 11
167.019
 21
123.85
 31
0.0
  0
LINE
  8
0
 62
     0
 10
186.069
 20
123.85
 30
0.0
 11
186.069
 21
122.849
 31
0.0
  0
LINE
  8
0
 62
     0
 10
186.069
 20
122.849
 30
0.0
 11
185.27
 21
122.849
 31
0.0
  0
LINE
  8
0
 62
     0
 10
185.27
 20
122.849
 30
0.0
 11
185.27
 21
119.749
 31
0.0
  0
LINE
  8
0
 62
     0
 10
185.27
 20
119.749
 30
0.0
 11
186.069
 21
119.749
 31
0.0
  0
LINE
  8
0
 62
     0
 10
186.069
 20
119.749
 30
0.0
 11
186.069
 21
113.949
 31
0.0
  0
LINE
  8
0
 62
     0
 10
186.069
 20
113.949
 30
0.0
 11
185.27
 21
113.949
 31
0.0
  0
LINE
  8
0
 62
     0
 10
185.27
 20
113.949
 30
0.0
 11
185.27
 21
110.849
 31
0.0
  0
LINE
  8
0
 62
     0
 10
185.27
 20
110.849
 30
0.0
 11
186.069
 21
110.849
 31
0.0
  0
LINE
  8
0
 62
     0
 10
186.069
 20
110.849
 30
0.0
 11
186.069
 21
109.85
 31
0.0
  0
LINE
  8
0
 62
     0
 10
186.069
 20
109.85
 30
0.0
 11
200.069
 21
109.85
 31
0.0
  0
LINE
  8
0
 62
     0
 10
200.069
 20
109.85
 30
0.0
 11
200.069
 21
110.849
 31
0.0
  0
LINE
  8
0
 62
     0
 10
200.069
 20
110.849
 30
0.0
 11
200.87
 21
110.849
 31
0.0
  0
LINE
  8
0
 62
     0
 10
200.87
 20
110.849
 30
0.0
 11
200.87
 21
113.949
 31
0.0
  0
LINE
  8
0
 62
     0
 10
200.87
 20
113.949
 30
0.0
 11
200.069
 21
113.949
 31
0.0
  0
LINE
  8
0
 62
     0
 10
200.069
 20
113.949
 30
0.0
 11
200.069
 21
119.749
 31
0.0
  0
LINE
  8
0
 62
     0
 10
200.069
 20
119.749
 30
0.0
 11
200.87
 21
119.749
 31
0.0
  0
LINE
  8
0
 62
     0
 10
200.87
 20
119.749
 30
0.0
 11
200.87
 21
122.849
 31
0.0
  0
LINE
  8
0
 62
     0
 10
200.87
 20
122.849
 30
0.0
 11
200.069
 21
122.849
 31
0.0
  0
LINE
  8
0
 62
     0
 10
200.069
 20
122.849
 30
0.0
 11
200.069
 21
123.85
 31
0.0
  0
LINE
  8
0
 62
     0
 10
200.069
 20
123.85
 30
0.0
 11
186.069
 21
123.85
 31
0.0
  0
LINE
  8
0
 62
     0
 10
205.119
 20
123.85
 30
0.0
 11
205.119
 21
122.849
 31
0.0
  0
LINE
  8
0
 62
     0
 10
205.119
 20
122.849
 30
0.0
 11
204.32
 21
122.849
 31
0.0
  0
LINE
  8
0
 62
     0
 10
204.32
 20
122.849
 30
0.0
 11
204.32
 21
119.749
 31
0.0
  0
LINE
  8
0
 62
     0
 10
204.32
 20
119.749
 30
0.0
 11
205.119
 21
119.749
 31
0.0
  0
LINE
  8
0
 62
     0
 10
205.119
 20
119.749
 30
0.0
 11
205.119
 21
113.949
 31
0.0
  0
LINE
  8
0
 62
     0
 10
205.119
 20
113.949
 30
0.0
 11
204.32
 21
113.949
 31
0.0
  0
LINE
  8
0
 62
     0
 10
204.32
 20
113.949
 30
0.0
 11
204.32
 21
110.849
 31
0.0
  0
LINE
  8
0
 62
     0
 10
204.32
 20
110.849
 30
0.0
 11
205.119
 21
110.849
 31
0.0
  0
LINE
  8
0
 62
     0
 10
205.119
 20
110.849
 30
0.0
 11
205.119
 21
109.85
 31
0.0
  0
LINE
  8
0
 62
     0
 10
205.119
 20
109.85
 30
0.0
 11
219.119
 21
109.85
 31
0.0
  0
LINE
  8
0
 62
     0
 10
219.119
 20
109.85
 30
0.0
 11
219.119
 21
110.849
 31
0.0
  0
LINE
  8
0
 62
     0
 10
219.119
 20
110.849
 30
0.0
 11
219.92
 21
110.849
 31
0.0
  0
LINE
  8
0
 62
     0
 10
219.92
 20
110.849
 30
0.0
 11
219.92
 21
113.949
 31
0.0
  0
LINE
  8
0
 62
     0
 10
219.92
 20
113.949
 30
0.0
 11
219.119
 21
113.949
 31
0.0
  0
LINE
  8
0
 62
     0
 10
219.119
 20
113.949
 30
0.0
 11
219.119
 21
119.749
 31
0.0
  0
LINE
  8
0
 62
     0
 10
219.119
 20
119.749
 30
0.0
 11
219.92
 21
119.749
 31
0.0
  0
LINE
  8
0
 62
     0
 10
219.92
 20
119.749
 30
0.0
 11
219.92
 21
122.849
 31
0.0
  0
LINE
  8
0
 62
     0
 10
219.92
 20
122.849
 30
0.0
 11
219.119
 21
122.849
 31
0.0
  0
LINE
  8
0
 62
     0
 10
219.119
 20
122.849
 30
0.0
 11
219.119
 21
123.85
 31
0.0
  0
LINE
  8
0
 62
     0
 10
219.119
 20
123.85
 30
0.0
 11
205.119
 21
123.85
 31
0.0
  0
LINE
  8
0
 62
     0
 10
224.169
 20
123.85
 30
0.0
 11
224.169
 21
122.849
 31
0.0
  0
LINE
  8
0
 62
     0
 10
224.169
 20
122.849
 30
0.0
 11
223.37
 21
122.849
 31
0.0
  0
LINE
  8
0
 62
     0
 10
223.37
 20
122.849
 30
0.0
 11
223.37
 21
119.749
 31
0.0
  0
LINE
  8
0
 62
     0
 10
223.37
 20
119.749
 30
0.0
 11
224.169
 21
119.749
 31
0.0
  0
LINE
  8
0
 62
     0
 10
224.169
 20
119.749
 30
0.0
 11
224.169
 21
113.949
 31
0.0
  0
LINE
  8
0
 62
     0
 10
224.169
 20
113.949
 30
0.0
 11
223.37
 21
113.949
 31
0.0
  0
LINE
  8
0
 62
     0
 10
223.37
 20
113.949
 30
0.0
 11
223.37
 21
110.849
 31
0.0
  0
LINE
  8
0
 62
     0
 10
223.37
 20
110.849
 30
0.0
 11
224.169
 21
110.849
 31
0.0
  0
LINE
  8
0
 62
     0
 10
224.169
 20
110.849
 30
0.0
 11
224.169
 21
109.85
 31
0.0
  0
LINE
  8
0
 62
     0
 10
224.169
 20
109.85
 30
0.0
 11
238.169
 21
109.85
 31
0.0
  0
LINE
  8
0
 62
     0
 10
238.169
 20
109.85
 30
0.0
 11
238.169
 21
110.849
 31
0.0
  0
LINE
  8
0
 62
     0
 10
238.169
 20
110.849
 30
0.0
 11
238.97
 21
110.849
 31
0.0
  0
LINE
  8
0
 62
     0
 10
238.97
 20
110.849
 30
0.0
 11
238.97
 21
113.949
 31
0.0
  0
LINE
  8
0
 62
     0
 10
238.97
 20
113.949
 30
0.0
 11
238.169
 21
113.949
 31
0.0
  0
LINE
  8
0
 62
     0
 10
238.169
 20
113.949
 30
0.0
 11
238.169
 21
119.749
 31
0.0
  0
LINE
  8
0
 62
     0
 10
238.169
 20
119.749
 30
0.0
 11
238.97
 21
119.749
 31
0.0
  0
LINE
  8
0
 62
     0
 10
238.97
 20
119.749
 30
0.0
 11
238.97
 21
122.849
 31
0.0
  0
LINE
  8
0
 62
     0
 10
238.97
 20
122.849
 30
0.0
 11
238.169
 21
122.849
 31
0.0
  0
LINE
  8
0
 62
     0
 10
238.169
 20
122.849
 30
0.0
 11
238.169
 21
123.85
 31
0.0
  0
LINE
  8
0
 62
     0
 10
238.169
 20
123.85
 30
0.0
 11
224.169
 21
123.85
 31
0.0
  0
LINE
  8
0
 62
     0
 10
243.219
 20
123.85
 30
0.0
 11
243.219
 21
122.849
 31
0.0
  0
LINE
  8
0
 62
     0
 10
243.219
 20
122.849
 30
0.0
 11
242.42
 21
122.849
 31
0.0
  0
LINE
  8
0
 62
     0
 10
242.42
 20
122.849
 30
0.0
 11
242.42
 21
119.749
 31
0.0
  0
LINE
  8
0
 62
     0
 10
242.42
 20
119.749
 30
0.0
 11
243.219
 21
119.749
 31
0.0
  0
LINE
  8
0
 62
     0
 10
243.219
 20
119.749
 30
0.0
 11
243.219
 21
113.949
 31
0.0
  0
LINE
  8
0
 62
     0
 10
243.219
 20
113.949
 30
0.0
 11
242.42
 21
113.949
 31
0.0
  0
LINE
  8
0
 62
     0
 10
242.42
 20
113.949
 30
0.0
 11
242.42
 21
110.849
 31
0.0
  0
LINE
  8
0
 62
     0
 10
242.42
 20
110.849
 30
0.0
 11
243.219
 21
110.849
 31
0.0
  0
LINE
  8
0
 62
     0
 10
243.219
 20
110.849
 30
0.0
 11
243.219
 21
109.85
 31
0.0
  0
LINE
  8
0
 62
     0
 10
243.219
 20
109.85
 30
0.0
 11
257.219
 21
109.85
 31
0.0
  0
LINE
  8
0
 62
     0
 10
257.219
 20
109.85
 30
0.0
 11
257.219
 21
110.849
 31
0.0
  0
LINE
  8
0
 62
     0
 10
257.219
 20
110.849
 30
0.0
 11
258.02
 21
110.849
 31
0.0
  0
LINE
  8
0
 62
     0
 10
258.02
 20
110.849
 30
0.0
 11
258.02
 21
113.949
 31
0.0
  0
LINE
  8
0
 62
     0
 10
258.02
 20
113.949
 30
0.0
 11
257.219
 21
113.949
 31
0.0
  0
LINE
  8
0
 62
     0
 10
257.219
 20
113.949
 30
0.0
 11
257.219
 21
119.749
 31
0.0
  0
LINE
  8
0
 62
     0
 10
257.219
 20
119.749
 30
0.0
 11
258.02
 21
119.749
 31
0.0
  0
LINE
  8
0
 62
     0
 10
258.02
 20
119.749
 30
0.0
 11
258.02
 21
122.849
 31
0.0
  0
LINE
  8
0
 62
     0
 10
258.02
 20
122.849
 30
0.0
 11
257.219
 21
122.849
 31
0.0
  0
LINE
  8
0
 62
     0
 10
257.219
 20
122.849
 30
0.0
 11
257.219
 21
123.85
 31
0.0
  0
LINE
  8
0
 62
     0
 10
257.219
 20
123.85
 30
0.0
 11
243.219
 21
123.85
 31
0.0
  0
LINE
  8
0
 62
     0
 10
154.475
 20
133.897
 30
0.0
 11
154.03
 21
133.67
 31
0.0
  0
LINE
  8
0
 62
     0
 10
154.03
 20
133.67
 30
0.0
 11
153.676
 21
133.315
 31
0.0
  0
LINE
  8
0
 62
     0
 10
153.676
 20
133.315
 30
0.0
 11
153.447
 21
132.869
 31
0.0
  0
LINE
  8
0
 62
     0
 10
153.447
 20
132.869
 30
0.0
 11
153.37
 21
132.374
 31
0.0
  0
LINE
  8
0
 62
     0
 10
153.37
 20
132.374
 30
0.0
 11
153.447
 21
131.88
 31
0.0
  0
LINE
  8
0
 62
     0
 10
153.447
 20
131.88
 30
0.0
 11
153.676
 21
131.434
 31
0.0
  0
LINE
  8
0
 62
     0
 10
153.676
 20
131.434
 30
0.0
 11
154.03
 21
131.08
 31
0.0
  0
LINE
  8
0
 62
     0
 10
154.03
 20
131.08
 30
0.0
 11
154.475
 21
130.852
 31
0.0
  0
LINE
  8
0
 62
     0
 10
154.475
 20
130.852
 30
0.0
 11
154.97
 21
130.773
 31
0.0
  0
LINE
  8
0
 62
     0
 10
154.97
 20
130.773
 30
0.0
 11
155.464
 21
130.852
 31
0.0
  0
LINE
  8
0
 62
     0
 10
155.464
 20
130.852
 30
0.0
 11
155.91
 21
131.08
 31
0.0
  0
LINE
  8
0
 62
     0
 10
155.91
 20
131.08
 30
0.0
 11
156.264
 21
131.434
 31
0.0
  0
LINE
  8
0
 62
     0
 10
156.264
 20
131.434
 30
0.0
 11
156.492
 21
131.88
 31
0.0
  0
LINE
  8
0
 62
     0
 10
156.492
 20
131.88
 30
0.0
 11
156.57
 21
132.374
 31
0.0
  0
LINE
  8
0
 62
     0
 10
156.57
 20
132.374
 30
0.0
 11
156.492
 21
132.869
 31
0.0
  0
LINE
  8
0
 62
     0
 10
156.492
 20
132.869
 30
0.0
 11
156.264
 21
133.315
 31
0.0
  0
LINE
  8
0
 62
     0
 10
156.264
 20
133.315
 30
0.0
 11
155.91
 21
133.67
 31
0.0
  0
LINE
  8
0
 62
     0
 10
155.91
 20
133.67
 30
0.0
 11
155.464
 21
133.897
 31
0.0
  0
LINE
  8
0
 62
     0
 10
155.464
 20
133.897
 30
0.0
 11
154.97
 21
133.974
 31
0.0
  0
LINE
  8
0
 62
     0
 10
154.97
 20
133.974
 30
0.0
 11
154.475
 21
133.897
 31
0.0
  0
LINE
  8
0
 62
     0
 10
303.35
 20
133.897
 30
0.0
 11
302.905
 21
133.67
 31
0.0
  0
LINE
  8
0
 62
     0
 10
302.905
 20
133.67
 30
0.0
 11
302.551
 21
133.315
 31
0.0
  0
LINE
  8
0
 62
     0
 10
302.551
 20
133.315
 30
0.0
 11
302.323
 21
132.869
 31
0.0
  0
LINE
  8
0
 62
     0
 10
302.323
 20
132.869
 30
0.0
 11
302.245
 21
132.374
 31
0.0
  0
LINE
  8
0
 62
     0
 10
302.245
 20
132.374
 30
0.0
 11
302.323
 21
131.88
 31
0.0
  0
LINE
  8
0
 62
     0
 10
302.323
 20
131.88
 30
0.0
 11
302.551
 21
131.434
 31
0.0
  0
LINE
  8
0
 62
     0
 10
302.551
 20
131.434
 30
0.0
 11
302.905
 21
131.08
 31
0.0
  0
LINE
  8
0
 62
     0
 10
302.905
 20
131.08
 30
0.0
 11
303.35
 21
130.852
 31
0.0
  0
LINE
  8
0
 62
     0
 10
303.35
 20
130.852
 30
0.0
 11
303.846
 21
130.773
 31
0.0
  0
LINE
  8
0
 62
     0
 10
303.846
 20
130.773
 30
0.0
 11
304.34
 21
130.852
 31
0.0
  0
LINE
  8
0
 62
     0
 10
304.34
 20
130.852
 30
0.0
 11
304.786
 21
131.08
 31
0.0
  0
LINE
  8
0
 62
     0
 10
304.786
 20
131.08
 30
0.0
 11
305.14
 21
131.434
 31
0.0
  0
LINE
  8
0
 62
     0
 10
305.14
 20
131.434
 30
0.0
 11
305.366
 21
131.88
 31
0.0
  0
LINE
  8
0
 62
     0
 10
305.366
 20
131.88
 30
0.0
 11
305.446
 21
132.374
 31
0.0
  0
LINE
  8
0
 62
     0
 10
305.446
 20
132.374
 30
0.0
 11
305.366
 21
132.869
 31
0.0
  0
LINE
  8
0
 62
     0
 10
305.366
 20
132.869
 30
0.0
 11
305.14
 21
133.315
 31
0.0
  0
LINE
  8
0
 62
     0
 10
305.14
 20
133.315
 30
0.0
 11
304.786
 21
133.67
 31
0.0
  0
LINE
  8
0
 62
     0
 10
304.786
 20
133.67
 30
0.0
 11
304.34
 21
133.897
 31
0.0
  0
LINE
  8
0
 62
     0
 10
304.34
 20
133.897
 30
0.0
 11
303.846
 21
133.974
 31
0.0
  0
LINE
  8
0
 62
     0
 10
303.846
 20
133.974
 30
0.0
 11
303.35
 21
133.897
 31
0.0
  0
LINE
  8
0
 62
     0
 10
5.60035
 20
133.897
 30
0.0
 11
5.15387
 21
133.67
 31
0.0
  0
LINE
  8
0
 62
     0
 10
5.15387
 20
133.67
 30
0.0
 11
4.79972
 21
133.315
 31
0.0
  0
LINE
  8
0
 62
     0
 10
4.79972
 20
133.315
 30
0.0
 11
4.57232
 21
132.869
 31
0.0
  0
LINE
  8
0
 62
     0
 10
4.57232
 20
132.869
 30
0.0
 11
4.49516
 21
132.374
 31
0.0
  0
LINE
  8
0
 62
     0
 10
4.49516
 20
132.374
 30
0.0
 11
4.57232
 21
131.88
 31
0.0
  0
LINE
  8
0
 62
     0
 10
4.57232
 20
131.88
 30
0.0
 11
4.79972
 21
131.434
 31
0.0
  0
LINE
  8
0
 62
     0
 10
4.79972
 20
131.434
 30
0.0
 11
5.15387
 21
131.08
 31
0.0
  0
LINE
  8
0
 62
     0
 10
5.15387
 20
131.08
 30
0.0
 11
5.60035
 21
130.852
 31
0.0
  0
LINE
  8
0
 62
     0
 10
5.60035
 20
130.852
 30
0.0
 11
6.09505
 21
130.773
 31
0.0
  0
LINE
  8
0
 62
     0
 10
6.09505
 20
130.773
 30
0.0
 11
6.58841
 21
130.852
 31
0.0
  0
LINE
  8
0
 62
     0
 10
6.58841
 20
130.852
 30
0.0
 11
7.03488
 21
131.08
 31
0.0
  0
LINE
  8
0
 62
     0
 10
7.03488
 20
131.08
 30
0.0
 11
7.38904
 21
131.434
 31
0.0
  0
LINE
  8
0
 62
     0
 10
7.38904
 20
131.434
 30
0.0
 11
7.6164
 21
131.88
 31
0.0
  0
LINE
  8
0
 62
     0
 10
7.6164
 20
131.88
 30
0.0
 11
7.69497
 21
132.374
 31
0.0
  0
LINE
  8
0
 62
     0
 10
7.69497
 20
132.374
 30
0.0
 11
7.6164
 21
132.869
 31
0.0
  0
LINE
  8
0
 62
     0
 10
7.6164
 20
132.869
 30
0.0
 11
7.38904
 21
133.315
 31
0.0
  0
LINE
  8
0
 62
     0
 10
7.38904
 20
133.315
 30
0.0
 11
7.03488
 21
133.67
 31
0.0
  0
LINE
  8
0
 62
     0
 10
7.03488
 20
133.67
 30
0.0
 11
6.58841
 21
133.897
 31
0.0
  0
LINE
  8
0
 62
     0
 10
6.58841
 20
133.897
 30
0.0
 11
6.09505
 21
133.974
 31
0.0
  0
LINE
  8
0
 62
     0
 10
6.09505
 20
133.974
 30
0.0
 11
5.60035
 21
133.897
 31
0.0
  0
ENDSEC
  0
EOF
