999
dxflib 3.12.2.0
  0
SECTION
  2
HEADER
  9
$ACADVER
  1
AC1015
  9
$HANDSEED
  5
FFFF
  9
$DIMADEC
 70
0
  9
$DIMASZ
 40
0.18
  9
$DIMAUNIT
 70
0
  9
$DIMAZIN
 70
0
  9
$DIMDEC
 70
4
  9
$DIMDSEP
 70
46
  9
$DIMEXE
 40
0.18
  9
$DIMEXO
 40
0.0625
  9
$DIMGAP
 40
0.09
  9
$DIMLUNIT
 70
2
  9
$DIMSCALE
 40
1.0
  9
$DIMTSZ
 40
0.0
  9
$DIMTXT
 40
0.18
  9
$DIMZIN
 70
0
  9
$DWGCODEPAGE
  3
ANSI_1252
  9
$EXTMAX
 10
1000.0
 20
1000.0
 30
0.0
  9
$EXTMIN
 10
0.0
 20
0.0
 30
0.0
  9
$FILLMODE
 70
0
  9
$INSUNITS
 70
0
  9
$LTSCALE
 40
1.0
  9
$MAXACTVP
 70
32
  9
$MEASUREMENT
 70
0
  9
$PDMODE
 70
0
  9
$PDSIZE
 40
0
  9
$SPLFRAME
 70
1
  0
ENDSEC
  0
SECTION
  2
TABLES
  0
TABLE
  2
VPORT
  5
8
100
AcDbSymbolTable
 70
1
  0
VPORT
  5
30
100
AcDbSymbolTableRecord
100
AcDbViewportTableRecord
  2
*Active
 70
0
 10
0.0
 20
0.0
 11
1.0
 21
1.0
 12
286.3055555555554861
 22
148.5
 13
0.0
 23
0.0
 14
10.0
 24
10.0
 15
10.0
 25
10.0
 16
0.0
 26
0.0
 36
1.0
 17
0.0
 27
0.0
 37
0.0
 40
297.0
 41
1.92798353909465
 42
50.0
 43
0.0
 44
0.0
 50
0.0
 51
0.0
 71
0
 72
100
 73
1
 74
3
 75
1
 76
1
 77
0
 78
0
281
0
 65
1
110
0.0
120
0.0
130
0.0
111
1.0
121
0.0
131
0.0
112
0.0
122
1.0
132
0.0
 79
0
146
0.0
  0
ENDTAB
  0
TABLE
  2
LTYPE
  5
5
100
AcDbSymbolTable
 70
41
  0
LTYPE
  5
16
100
AcDbSymbolTableRecord
100
AcDbLinetypeTableRecord
  2
Continuous
 70
0
  3
Solid line
 72
65
 73
0
 40
0.0
  0
LTYPE
  5
31
100
AcDbSymbolTableRecord
100
AcDbLinetypeTableRecord
  2
ACAD_ISO15W100
 70
0
  3
ISO double-dash triple-dot __ __ . . . __ __ . .
 72
65
 73
10
 40
39.0
 49
12.0
 74
0
 49
-3.0
 74
0
 49
12.0
 74
0
 49
-3.0
 74
0
 49
0.0
 74
0
 49
-3.0
 74
0
 49
0.0
 74
0
 49
-3.0
 74
0
 49
0.0
 74
0
 49
-3.0
 74
0
  0
LTYPE
  5
32
100
AcDbSymbolTableRecord
100
AcDbLinetypeTableRecord
  2
DIVIDE
 70
0
  3
Divide ____ . . ____ . . ____ . . ____ . . ____
 72
65
 73
6
 40
31.75
 49
12.6999999999999993
 74
0
 49
-6.3499999999999996
 74
0
 49
0.0
 74
0
 49
-6.3499999999999996
 74
0
 49
0.0
 74
0
 49
-6.3499999999999996
 74
0
  0
LTYPE
  5
33
100
AcDbSymbolTableRecord
100
AcDbLinetypeTableRecord
  2
ACAD_ISO10W100
 70
0
  3
ISO dash dot __ . __ . __ . __ . __ . __ . __ . 
 72
65
 73
4
 40
18.0
 49
12.0
 74
0
 49
-3.0
 74
0
 49
0.0
 74
0
 49
-3.0
 74
0
  0
LTYPE
  5
34
100
AcDbSymbolTableRecord
100
AcDbLinetypeTableRecord
  2
ACAD_ISO04W100
 70
0
  3
ISO long-dash dot ____ . ____ . ____ . ____ . _
 72
65
 73
4
 40
30.0
 49
24.0
 74
0
 49
-3.0
 74
0
 49
0.0
 74
0
 49
-3.0
 74
0
  0
LTYPE
  5
35
100
AcDbSymbolTableRecord
100
AcDbLinetypeTableRecord
  2
CENTER2
 70
0
  3
Center (.5x) ___ _ ___ _ ___ _ ___ _ ___ _ ___
 72
65
 73
4
 40
28.5750000000000028
 49
19.0500000000000007
 74
0
 49
-3.1749999999999998
 74
0
 49
3.1749999999999998
 74
0
 49
-3.1749999999999998
 74
0
  0
LTYPE
  5
36
100
AcDbSymbolTableRecord
100
AcDbLinetypeTableRecord
  2
ACAD_ISO11W100
 70
0
  3
ISO double-dash dot __ __ . __ __ . __ __ . __ _
 72
65
 73
6
 40
33.0
 49
12.0
 74
0
 49
-3.0
 74
0
 49
12.0
 74
0
 49
-3.0
 74
0
 49
0.0
 74
0
 49
-3.0
 74
0
  0
LTYPE
  5
37
100
AcDbSymbolTableRecord
100
AcDbLinetypeTableRecord
  2
HIDDEN2
 70
0
  3
Hidden (.5x) _ _ _ _ _ _ _ _ _ _ _ _ _ _ _ _ _ 
 72
65
 73
2
 40
4.7624999999999993
 49
3.1749999999999998
 74
0
 49
-1.5874999999999999
 74
0
  0
LTYPE
  5
38
100
AcDbSymbolTableRecord
100
AcDbLinetypeTableRecord
  2
BORDERX2
 70
0
  3
Border (2x) ____  ____  .  ____  ____  .  ___
 72
65
 73
6
 40
88.8999999999999915
 49
25.3999999999999986
 74
0
 49
-12.6999999999999993
 74
0
 49
25.3999999999999986
 74
0
 49
-12.6999999999999993
 74
0
 49
0.0
 74
0
 49
-12.6999999999999993
 74
0
  0
LTYPE
  5
39
100
AcDbSymbolTableRecord
100
AcDbLinetypeTableRecord
  2
ACAD_ISO05W100
 70
0
  3
ISO long-dash double-dot ____ .. ____ .. ____ . 
 72
65
 73
6
 40
33.0
 49
24.0
 74
0
 49
-3.0
 74
0
 49
0.0
 74
0
 49
-3.0
 74
0
 49
0.0
 74
0
 49
-3.0
 74
0
  0
LTYPE
  5
3A
100
AcDbSymbolTableRecord
100
AcDbLinetypeTableRecord
  2
DASHDOTX2
 70
0
  3
Dash dot (2x) ____  .  ____  .  ____  .  ___
 72
65
 73
4
 40
50.7999999999999972
 49
25.3999999999999986
 74
0
 49
-12.6999999999999993
 74
0
 49
0.0
 74
0
 49
-12.6999999999999993
 74
0
  0
LTYPE
  5
3B
100
AcDbSymbolTableRecord
100
AcDbLinetypeTableRecord
  2
HIDDENX2
 70
0
  3
Hidden (2x) ____ ____ ____ ____ ____ ____ ____ 
 72
65
 73
2
 40
19.0499999999999972
 49
12.6999999999999993
 74
0
 49
-6.3499999999999996
 74
0
  0
LTYPE
  5
3C
100
AcDbSymbolTableRecord
100
AcDbLinetypeTableRecord
  2
CENTERX2
 70
0
  3
Center (2x) ________  __  ________  __  _____
 72
65
 73
4
 40
101.6000000000000085
 49
63.5
 74
0
 49
-12.6999999999999993
 74
0
 49
12.6999999999999993
 74
0
 49
-12.6999999999999993
 74
0
  0
LTYPE
  5
3D
100
AcDbSymbolTableRecord
100
AcDbLinetypeTableRecord
  2
BORDER2
 70
0
  3
Border (.5x) __.__.__.__.__.__.__.__.__.__.__.
 72
65
 73
6
 40
22.2249999999999979
 49
6.3499999999999996
 74
0
 49
-3.1749999999999998
 74
0
 49
6.3499999999999996
 74
0
 49
-3.1749999999999998
 74
0
 49
0.0
 74
0
 49
-3.1749999999999998
 74
0
  0
LTYPE
  5
3E
100
AcDbSymbolTableRecord
100
AcDbLinetypeTableRecord
  2
DASHDOT2
 70
0
  3
Dash dot (.5x) _._._._._._._._._._._._._._._.
 72
65
 73
4
 40
12.6999999999999993
 49
6.3499999999999996
 74
0
 49
-3.1749999999999998
 74
0
 49
0.0
 74
0
 49
-3.1749999999999998
 74
0
  0
LTYPE
  5
3F
100
AcDbSymbolTableRecord
100
AcDbLinetypeTableRecord
  2
ACAD_ISO12W100
 70
0
  3
ISO dash double-dot __ . . __ . . __ . . __ . . 
 72
65
 73
6
 40
21.0
 49
12.0
 74
0
 49
-3.0
 74
0
 49
0.0
 74
0
 49
-3.0
 74
0
 49
0.0
 74
0
 49
-3.0
 74
0
  0
LTYPE
  5
40
100
AcDbSymbolTableRecord
100
AcDbLinetypeTableRecord
  2
ACAD_ISO07W100
 70
0
  3
ISO dot . . . . . . . . . . . . . . . . . . . . 
 72
65
 73
2
 40
3.0
 49
0.0
 74
0
 49
-3.0
 74
0
  0
LTYPE
  5
41
100
AcDbSymbolTableRecord
100
AcDbLinetypeTableRecord
  2
HIDDEN
 70
0
  3
Hidden __ __ __ __ __ __ __ __ __ __ __ __ __ __
 72
65
 73
2
 40
9.5249999999999986
 49
6.3499999999999996
 74
0
 49
-3.1749999999999998
 74
0
  0
LTYPE
  5
42
100
AcDbSymbolTableRecord
100
AcDbLinetypeTableRecord
  2
ACAD_ISO06W100
 70
0
  3
ISO long-dash triple-dot ____ ... ____ ... ____
 72
65
 73
8
 40
36.0
 49
24.0
 74
0
 49
-3.0
 74
0
 49
0.0
 74
0
 49
-3.0
 74
0
 49
0.0
 74
0
 49
-3.0
 74
0
 49
0.0
 74
0
 49
-3.0
 74
0
  0
LTYPE
  5
43
100
AcDbSymbolTableRecord
100
AcDbLinetypeTableRecord
  2
CENTER
 70
0
  3
Center ____ _ ____ _ ____ _ ____ _ ____ _ ____
 72
65
 73
4
 40
50.8000000000000043
 49
31.75
 74
0
 49
-6.3499999999999996
 74
0
 49
6.3499999999999996
 74
0
 49
-6.3499999999999996
 74
0
  0
LTYPE
  5
44
100
AcDbSymbolTableRecord
100
AcDbLinetypeTableRecord
  2
DOTX2
 70
0
  3
Dot (2x) .  .  .  .  .  .  .  .  .  .  .  .  .  .
 72
65
 73
2
 40
12.6999999999999993
 49
0.0
 74
0
 49
-12.6999999999999993
 74
0
  0
LTYPE
  5
45
100
AcDbSymbolTableRecord
100
AcDbLinetypeTableRecord
  2
PHANTOM
 70
0
  3
Phantom ______  __  __  ______  __  __  ______ 
 72
65
 73
6
 40
63.5000000000000071
 49
31.75
 74
0
 49
-6.3499999999999996
 74
0
 49
6.3499999999999996
 74
0
 49
-6.3499999999999996
 74
0
 49
6.3499999999999996
 74
0
 49
-6.3499999999999996
 74
0
  0
LTYPE
  5
46
100
AcDbSymbolTableRecord
100
AcDbLinetypeTableRecord
  2
ACAD_ISO08W100
 70
0
  3
ISO long-dash short-dash ____ __ ____ __ ____ _
 72
65
 73
4
 40
36.0
 49
24.0
 74
0
 49
-3.0
 74
0
 49
6.0
 74
0
 49
-3.0
 74
0
  0
LTYPE
  5
47
100
AcDbSymbolTableRecord
100
AcDbLinetypeTableRecord
  2
DASHEDX2
 70
0
  3
Dashed (2x) ____  ____  ____  ____  ____  ___
 72
65
 73
2
 40
38.0999999999999943
 49
25.3999999999999986
 74
0
 49
-12.6999999999999993
 74
0
  0
LTYPE
  5
48
100
AcDbSymbolTableRecord
100
AcDbLinetypeTableRecord
  2
ACAD_ISO02W100
 70
0
  3
ISO dash __ __ __ __ __ __ __ __ __ __ __ __ __
 72
65
 73
2
 40
15.0
 49
12.0
 74
0
 49
-3.0
 74
0
  0
LTYPE
  5
49
100
AcDbSymbolTableRecord
100
AcDbLinetypeTableRecord
  2
PHANTOM2
 70
0
  3
Phantom (.5x) ___ _ _ ___ _ _ ___ _ _ ___ _ _
 72
65
 73
6
 40
31.7500000000000036
 49
15.875
 74
0
 49
-3.1749999999999998
 74
0
 49
3.1749999999999998
 74
0
 49
-3.1749999999999998
 74
0
 49
3.1749999999999998
 74
0
 49
-3.1749999999999998
 74
0
  0
LTYPE
  5
4A
100
AcDbSymbolTableRecord
100
AcDbLinetypeTableRecord
  2
DASHED2
 70
0
  3
Dashed (.5x) _ _ _ _ _ _ _ _ _ _ _ _ _ _ _ _ _ 
 72
65
 73
2
 40
9.5249999999999986
 49
6.3499999999999996
 74
0
 49
-3.1749999999999998
 74
0
  0
LTYPE
  5
4B
100
AcDbSymbolTableRecord
100
AcDbLinetypeTableRecord
  2
ACAD_ISO09W100
 70
0
  3
ISO long-dash double-short-dash ____ __ __ ____
 72
65
 73
6
 40
45.0
 49
24.0
 74
0
 49
-3.0
 74
0
 49
6.0
 74
0
 49
-3.0
 74
0
 49
6.0
 74
0
 49
-3.0
 74
0
  0
LTYPE
  5
4C
100
AcDbSymbolTableRecord
100
AcDbLinetypeTableRecord
  2
ACAD_ISO13W100
 70
0
  3
ISO double-dash double-dot __ __ . . __ __ . . _
 72
65
 73
8
 40
36.0
 49
12.0
 74
0
 49
-3.0
 74
0
 49
12.0
 74
0
 49
-3.0
 74
0
 49
0.0
 74
0
 49
-3.0
 74
0
 49
0.0
 74
0
 49
-3.0
 74
0
  0
LTYPE
  5
4D
100
AcDbSymbolTableRecord
100
AcDbLinetypeTableRecord
  2
DOT2
 70
0
  3
Dot (.5x) ........................................
 72
65
 73
2
 40
3.1749999999999998
 49
0.0
 74
0
 49
-3.1749999999999998
 74
0
  0
LTYPE
  5
4E
100
AcDbSymbolTableRecord
100
AcDbLinetypeTableRecord
  2
DASHED
 70
0
  3
Dashed __ __ __ __ __ __ __ __ __ __ __ __ __ _
 72
65
 73
2
 40
19.0499999999999972
 49
12.6999999999999993
 74
0
 49
-6.3499999999999996
 74
0
  0
LTYPE
  5
4F
100
AcDbSymbolTableRecord
100
AcDbLinetypeTableRecord
  2
ACAD_ISO14W100
 70
0
  3
ISO dash triple-dot __ . . . __ . . . __ . . . _
 72
65
 73
8
 40
24.0
 49
12.0
 74
0
 49
-3.0
 74
0
 49
0.0
 74
0
 49
-3.0
 74
0
 49
0.0
 74
0
 49
-3.0
 74
0
 49
0.0
 74
0
 49
-3.0
 74
0
  0
LTYPE
  5
15
100
AcDbSymbolTableRecord
100
AcDbLinetypeTableRecord
  2
BYLAYER
 70
0
  3

 72
65
 73
0
 40
0.0
  0
LTYPE
  5
50
100
AcDbSymbolTableRecord
100
AcDbLinetypeTableRecord
  2
PHANTOMX2
 70
0
  3
Phantom (2x) ____________    ____    ____   _
 72
65
 73
6
 40
127.0000000000000142
 49
63.5
 74
0
 49
-12.6999999999999993
 74
0
 49
12.6999999999999993
 74
0
 49
-12.6999999999999993
 74
0
 49
12.6999999999999993
 74
0
 49
-12.6999999999999993
 74
0
  0
LTYPE
  5
14
100
AcDbSymbolTableRecord
100
AcDbLinetypeTableRecord
  2
BYBLOCK
 70
0
  3

 72
65
 73
0
 40
0.0
  0
LTYPE
  5
51
100
AcDbSymbolTableRecord
100
AcDbLinetypeTableRecord
  2
DIVIDEX2
 70
0
  3
Divide (2x) ________  .  .  ________  .  .  _
 72
65
 73
6
 40
63.5
 49
25.3999999999999986
 74
0
 49
-12.6999999999999993
 74
0
 49
0.0
 74
0
 49
-12.6999999999999993
 74
0
 49
0.0
 74
0
 49
-12.6999999999999993
 74
0
  0
LTYPE
  5
52
100
AcDbSymbolTableRecord
100
AcDbLinetypeTableRecord
  2
BORDER
 70
0
  3
Border __ __ . __ __ . __ __ . __ __ . __ __ .
 72
65
 73
6
 40
44.4499999999999957
 49
12.6999999999999993
 74
0
 49
-6.3499999999999996
 74
0
 49
12.6999999999999993
 74
0
 49
-6.3499999999999996
 74
0
 49
0.0
 74
0
 49
-6.3499999999999996
 74
0
  0
LTYPE
  5
53
100
AcDbSymbolTableRecord
100
AcDbLinetypeTableRecord
  2
DIVIDE2
 70
0
  3
Divide (.5x) __..__..__..__..__..__..__..__.._
 72
65
 73
6
 40
15.875
 49
6.3499999999999996
 74
0
 49
-3.1749999999999998
 74
0
 49
0.0
 74
0
 49
-3.1749999999999998
 74
0
 49
0.0
 74
0
 49
-3.1749999999999998
 74
0
  0
LTYPE
  5
54
100
AcDbSymbolTableRecord
100
AcDbLinetypeTableRecord
  2
DOT
 70
0
  3
Dot . . . . . . . . . . . . . . . . . . . . . . . .
 72
65
 73
2
 40
6.3499999999999996
 49
0.0
 74
0
 49
-6.3499999999999996
 74
0
  0
LTYPE
  5
55
100
AcDbSymbolTableRecord
100
AcDbLinetypeTableRecord
  2
DASHDOT
 70
0
  3
Dash dot __ . __ . __ . __ . __ . __ . __ . __
 72
65
 73
4
 40
25.3999999999999986
 49
12.6999999999999993
 74
0
 49
-6.3499999999999996
 74
0
 49
0.0
 74
0
 49
-6.3499999999999996
 74
0
  0
LTYPE
  5
56
100
AcDbSymbolTableRecord
100
AcDbLinetypeTableRecord
  2
ACAD_ISO03W100
 70
0
  3
ISO dash space __    __    __    __    __    __
 72
65
 73
2
 40
30.0
 49
12.0
 74
0
 49
-18.0
 74
0
  0
ENDTAB
  0
TABLE
  2
LAYER
  5
2
100
AcDbSymbolTable
 70
6
  0
LAYER
  5
57
100
AcDbSymbolTableRecord
100
AcDbLayerTableRecord
  2
7u-bottom-row
 70
1
 62
-7
420
0
  6
Continuous
370
5
390
F
  0
LAYER
  5
58
100
AcDbSymbolTableRecord
100
AcDbLayerTableRecord
  2
6.25u-bottom-row
 70
1
 62
-7
420
0
  6
Continuous
370
5
390
F
  0
LAYER
  5
59
100
AcDbSymbolTableRecord
100
AcDbLayerTableRecord
  2
vintage-shift-row
 70
0
 62
7
420
0
  6
Continuous
370
5
390
F
  0
LAYER
  5
5A
100
AcDbSymbolTableRecord
100
AcDbLayerTableRecord
  2
standard-shift-row
 70
1
 62
-7
420
0
  6
Continuous
370
5
390
F
  0
LAYER
  5
10
100
AcDbSymbolTableRecord
100
AcDbLayerTableRecord
  2
0
 70
0
 62
7
420
16777215
  6
Continuous
370
5
390
F
  0
LAYER
  5
5B
100
AcDbSymbolTableRecord
100
AcDbLayerTableRecord
  2
6u-bottom-row
 70
0
 62
7
420
0
  6
Continuous
370
5
390
F
  0
ENDTAB
  0
TABLE
  2
STYLE
  5
3
100
AcDbSymbolTable
 70
1
  0
STYLE
  5
5C
100
AcDbSymbolTableRecord
100
AcDbTextStyleTableRecord
  2
Standard
 70
0
 40
0.0
 41
1.0
 50
0.0
 71
0
 42
2.5
  3

  4

1001
ACAD
1000
txt
1071
0
  0
ENDTAB
  0
TABLE
  2
VIEW
  5
6
100
AcDbSymbolTable
 70
0
  0
ENDTAB
  0
TABLE
  2
UCS
  5
7
100
AcDbSymbolTable
 70
0
  0
ENDTAB
  0
TABLE
  2
APPID
  5
9
100
AcDbSymbolTable
 70
1
  0
APPID
  5
12
100
AcDbSymbolTableRecord
100
AcDbRegAppTableRecord
  2
ACAD
 70
0
  0
APPID
  5
5D
100
AcDbSymbolTableRecord
100
AcDbRegAppTableRecord
  2
QCAD
 70
0
  0
ENDTAB
  0
TABLE
  2
DIMSTYLE
  5
A
100
AcDbSymbolTable
 70
1
100
AcDbDimStyleTable
 71
0
  0
DIMSTYLE
105
27
100
AcDbSymbolTableRecord
100
AcDbDimStyleTableRecord
  2
Standard
 41
0.18
 42
0.0625
 43
3.75
 44
0.18
 70
0
 73
0
 74
0
 77
1
 78
8
140
0.18
141
2.5
143
0.03937007874016
147
0.09
171
3
172
1
271
2
272
2
274
3
278
44
283
0
284
8
340
5C
  0
ENDTAB
  0
TABLE
  2
BLOCK_RECORD
  5
1
100
AcDbSymbolTable
 70
1
  0
BLOCK_RECORD
  5
1F
100
AcDbSymbolTableRecord
100
AcDbBlockTableRecord
  2
*Model_Space
340
22
  0
BLOCK_RECORD
  5
1B
100
AcDbSymbolTableRecord
100
AcDbBlockTableRecord
  2
*Paper_Space
340
1E
  0
BLOCK_RECORD
  5
23
100
AcDbSymbolTableRecord
100
AcDbBlockTableRecord
  2
*Paper_Space0
340
26
  0
BLOCK_RECORD
  5
5E
100
AcDbSymbolTableRecord
100
AcDbBlockTableRecord
  2
Switch
340
0
  0
ENDTAB
  0
ENDSEC
  0
SECTION
  2
BLOCKS
  0
BLOCK
  5
20
100
AcDbEntity
  8
0
100
AcDbBlockBegin
  2
*Model_Space
 70
0
 10
0.0
 20
0.0
 30
0.0
  3
*Model_Space
  1

  0
ENDBLK
  5
21
100
AcDbEntity
  8
0
100
AcDbBlockEnd
  0
BLOCK
  5
1C
100
AcDbEntity
 67
1
  8
0
100
AcDbBlockBegin
  2
*Paper_Space
 70
0
 10
0.0
 20
0.0
 30
0.0
  3
*Paper_Space
  1

  0
ENDBLK
  5
1D
100
AcDbEntity
 67
1
  8
0
100
AcDbBlockEnd
  0
BLOCK
  5
24
100
AcDbEntity
  8
0
100
AcDbBlockBegin
  2
*Paper_Space0
 70
0
 10
0.0
 20
0.0
 30
0.0
  3
*Paper_Space0
  1

  0
ENDBLK
  5
25
100
AcDbEntity
  8
0
100
AcDbBlockEnd
  0
BLOCK
  5
5F
100
AcDbEntity
  8
0
100
AcDbBlockBegin
  2
Switch
 70
0
 10
0.0
 20
0.0
 30
0.0
  3
Switch
  1

  0
LINE
  5
60
100
AcDbEntity
  8
0
 62
256
370
-1
 48
1.0
  6
BYLAYER
100
AcDbLine
 10
-5.0369375588538787
 20
13.5958356175358119
 30
0.0
 11
-5.8375675588538627
 21
13.5958356175358119
 31
0.0
  0
LINE
  5
61
100
AcDbEntity
  8
0
 62
256
370
-1
 48
1.0
  6
BYLAYER
100
AcDbLine
 10
-5.8375675588538627
 20
13.5958356175358119
 30
0.0
 11
-5.8375675588538627
 21
0.7952556175358083
 31
0.0
  0
LINE
  5
62
100
AcDbEntity
  8
0
 62
256
370
-1
 48
1.0
  6
BYLAYER
100
AcDbLine
 10
-5.8375675588538627
 20
0.7952556175358083
 30
0.0
 11
-5.0369375588538787
 21
0.7952556175358083
 31
0.0
  0
LINE
  5
63
100
AcDbEntity
  8
0
 62
256
370
-1
 48
1.0
  6
BYLAYER
100
AcDbLine
 10
-5.0369375588538787
 20
0.7952556175358083
 30
0.0
 11
-5.0369375588538787
 21
0.1971856175358084
 31
0.0
  0
LINE
  5
64
100
AcDbEntity
  8
0
 62
256
370
-1
 48
1.0
  6
BYLAYER
100
AcDbLine
 10
-5.0369375588538787
 20
0.1971856175358084
 30
0.0
 11
8.9625824411461394
 21
0.1971856175358084
 31
0.0
  0
LINE
  5
65
100
AcDbEntity
  8
0
 62
256
370
-1
 48
1.0
  6
BYLAYER
100
AcDbLine
 10
8.9625824411461394
 20
0.1971856175358084
 30
0.0
 11
8.9625824411461394
 21
0.7952556175358083
 31
0.0
  0
LINE
  5
66
100
AcDbEntity
  8
0
 62
256
370
-1
 48
1.0
  6
BYLAYER
100
AcDbLine
 10
8.9625824411461394
 20
0.7952556175358083
 30
0.0
 11
9.7631824411461423
 21
0.7952556175358083
 31
0.0
  0
LINE
  5
67
100
AcDbEntity
  8
0
 62
256
370
-1
 48
1.0
  6
BYLAYER
100
AcDbLine
 10
9.7631824411461423
 20
0.7952556175358083
 30
0.0
 11
9.7631824411461423
 21
13.5958356175358119
 31
0.0
  0
LINE
  5
68
100
AcDbEntity
  8
0
 62
256
370
-1
 48
1.0
  6
BYLAYER
100
AcDbLine
 10
9.7631824411461423
 20
13.5958356175358119
 30
0.0
 11
8.9625824411461394
 21
13.5958356175358119
 31
0.0
  0
LINE
  5
69
100
AcDbEntity
  8
0
 62
256
370
-1
 48
1.0
  6
BYLAYER
100
AcDbLine
 10
8.9625824411461394
 20
13.5958356175358119
 30
0.0
 11
8.9625824411461394
 21
14.1967356175358077
 31
0.0
  0
LINE
  5
6A
100
AcDbEntity
  8
0
 62
256
370
-1
 48
1.0
  6
BYLAYER
100
AcDbLine
 10
8.9625824411461394
 20
14.1967356175358077
 30
0.0
 11
-5.0369375588538787
 21
14.1967356175358077
 31
0.0
  0
LINE
  5
6B
100
AcDbEntity
  8
0
 62
256
370
-1
 48
1.0
  6
BYLAYER
100
AcDbLine
 10
-5.0369375588538787
 20
14.1967356175358077
 30
0.0
 11
-5.0369375588538787
 21
13.5958356175358119
 31
0.0
  0
ENDBLK
  5
6C
100
AcDbEntity
  8
0
100
AcDbBlockEnd
  0
ENDSEC
  0
SECTION
  2
ENTITIES
  0
LINE
  5
6D
100
AcDbEntity
  8
6.25u-bottom-row
 62
256
370
-1
 48
1.0
  6
BYLAYER
100
AcDbLine
 10
128.5451334000000543
 20
16.365737100000004
 30
0.0
 11
128.5451334000000543
 21
15.7650371000000007
 31
0.0
  0
LINE
  5
6E
100
AcDbEntity
  8
6.25u-bottom-row
 62
256
370
-1
 48
1.0
  6
BYLAYER
100
AcDbLine
 10
128.5451334000000543
 20
15.7650371000000007
 30
0.0
 11
127.7441334000000239
 21
15.7650371000000007
 31
0.0
  0
LINE
  5
6F
100
AcDbEntity
  8
6.25u-bottom-row
 62
256
370
-1
 48
1.0
  6
BYLAYER
100
AcDbLine
 10
127.7441334000000239
 20
15.7650371000000007
 30
0.0
 11
127.7441334000000239
 21
11.6640371000000016
 31
0.0
  0
LINE
  5
70
100
AcDbEntity
  8
6.25u-bottom-row
 62
256
370
-1
 48
1.0
  6
BYLAYER
100
AcDbLine
 10
127.7441334000000239
 20
11.6640371000000016
 30
0.0
 11
88.9191334000000353
 21
11.6640371000000016
 31
0.0
  0
LINE
  5
71
100
AcDbEntity
  8
6.25u-bottom-row
 62
256
370
-1
 48
1.0
  6
BYLAYER
100
AcDbLine
 10
88.9191334000000353
 20
11.6640371000000016
 30
0.0
 11
88.9191334000000353
 21
14.8955370999999985
 31
0.0
  0
LINE
  5
72
100
AcDbEntity
  8
6.25u-bottom-row
 62
256
370
-1
 48
1.0
  6
BYLAYER
100
AcDbLine
 10
88.9191334000000353
 20
14.8955370999999985
 30
0.0
 11
87.194133400000041
 21
14.8955370999999985
 31
0.0
  0
LINE
  5
73
100
AcDbEntity
  8
6.25u-bottom-row
 62
256
370
-1
 48
1.0
  6
BYLAYER
100
AcDbLine
 10
87.194133400000041
 20
14.8955370999999985
 30
0.0
 11
87.194133400000041
 21
15.8160371000000026
 31
0.0
  0
LINE
  5
74
100
AcDbEntity
  8
6.25u-bottom-row
 62
256
370
-1
 48
1.0
  6
BYLAYER
100
AcDbLine
 10
87.194133400000041
 20
15.8160371000000026
 30
0.0
 11
83.8951334000000344
 21
15.8160371000000026
 31
0.0
  0
LINE
  5
75
100
AcDbEntity
  8
6.25u-bottom-row
 62
256
370
-1
 48
1.0
  6
BYLAYER
100
AcDbLine
 10
83.8951334000000344
 20
15.8160371000000026
 30
0.0
 11
83.8951334000000344
 21
14.8955370999999985
 31
0.0
  0
LINE
  5
76
100
AcDbEntity
  8
6.25u-bottom-row
 62
256
370
-1
 48
1.0
  6
BYLAYER
100
AcDbLine
 10
83.8951334000000344
 20
14.8955370999999985
 30
0.0
 11
82.1701334000000401
 21
14.8955370999999985
 31
0.0
  0
LINE
  5
77
100
AcDbEntity
  8
6.25u-bottom-row
 62
256
370
-1
 48
1.0
  6
BYLAYER
100
AcDbLine
 10
82.1701334000000401
 20
14.8955370999999985
 30
0.0
 11
82.1701334000000401
 21
11.6640371000000016
 31
0.0
  0
LINE
  5
78
100
AcDbEntity
  8
6.25u-bottom-row
 62
256
370
-1
 48
1.0
  6
BYLAYER
100
AcDbLine
 10
82.1701334000000401
 20
11.6640371000000016
 30
0.0
 11
81.3441334000000182
 21
11.6640371000000016
 31
0.0
  0
LINE
  5
79
100
AcDbEntity
  8
6.25u-bottom-row
 62
256
370
-1
 48
1.0
  6
BYLAYER
100
AcDbLine
 10
81.3441334000000182
 20
11.6640371000000016
 30
0.0
 11
81.3441334000000182
 21
8.8652371000000016
 31
0.0
  0
LINE
  5
7A
100
AcDbEntity
  8
6.25u-bottom-row
 62
256
370
-1
 48
1.0
  6
BYLAYER
100
AcDbLine
 10
81.3441334000000182
 20
8.8652371000000016
 30
0.0
 11
82.1701334000000401
 21
8.8652371000000016
 31
0.0
  0
LINE
  5
7B
100
AcDbEntity
  8
6.25u-bottom-row
 62
256
370
-1
 48
1.0
  6
BYLAYER
100
AcDbLine
 10
82.1701334000000401
 20
8.8652371000000016
 30
0.0
 11
82.1701334000000401
 21
2.5951371000000023
 31
0.0
  0
LINE
  5
7C
100
AcDbEntity
  8
6.25u-bottom-row
 62
256
370
-1
 48
1.0
  6
BYLAYER
100
AcDbLine
 10
82.1701334000000401
 20
2.5951371000000023
 30
0.0
 11
83.8951334000000344
 21
2.5951371000000023
 31
0.0
  0
LINE
  5
7D
100
AcDbEntity
  8
6.25u-bottom-row
 62
256
370
-1
 48
1.0
  6
BYLAYER
100
AcDbLine
 10
83.8951334000000344
 20
2.5951371000000023
 30
0.0
 11
83.8951334000000344
 21
1.615337100000005
 31
0.0
  0
LINE
  5
7E
100
AcDbEntity
  8
6.25u-bottom-row
 62
256
370
-1
 48
1.0
  6
BYLAYER
100
AcDbLine
 10
83.8951334000000344
 20
1.615337100000005
 30
0.0
 11
87.194133400000041
 21
1.615337100000005
 31
0.0
  0
LINE
  5
7F
100
AcDbEntity
  8
6.25u-bottom-row
 62
256
370
-1
 48
1.0
  6
BYLAYER
100
AcDbLine
 10
87.194133400000041
 20
1.615337100000005
 30
0.0
 11
87.194133400000041
 21
2.5951371000000023
 31
0.0
  0
LINE
  5
80
100
AcDbEntity
  8
6.25u-bottom-row
 62
256
370
-1
 48
1.0
  6
BYLAYER
100
AcDbLine
 10
87.194133400000041
 20
2.5951371000000023
 30
0.0
 11
88.9191334000000353
 21
2.5951371000000023
 31
0.0
  0
LINE
  5
81
100
AcDbEntity
  8
6.25u-bottom-row
 62
256
370
-1
 48
1.0
  6
BYLAYER
100
AcDbLine
 10
88.9191334000000353
 20
2.5951371000000023
 30
0.0
 11
88.9191334000000353
 21
7.0655371000000002
 31
0.0
  0
LINE
  5
82
100
AcDbEntity
  8
6.25u-bottom-row
 62
256
370
-1
 48
1.0
  6
BYLAYER
100
AcDbLine
 10
88.9191334000000353
 20
7.0655371000000002
 30
0.0
 11
127.7441334000000239
 21
7.0655371000000002
 31
0.0
  0
LINE
  5
83
100
AcDbEntity
  8
6.25u-bottom-row
 62
256
370
-1
 48
1.0
  6
BYLAYER
100
AcDbLine
 10
127.7441334000000239
 20
7.0655371000000002
 30
0.0
 11
127.7441334000000239
 21
2.9644370999999978
 31
0.0
  0
LINE
  5
84
100
AcDbEntity
  8
6.25u-bottom-row
 62
256
370
-1
 48
1.0
  6
BYLAYER
100
AcDbLine
 10
127.7441334000000239
 20
2.9644370999999978
 30
0.0
 11
128.5451334000000543
 21
2.9644370999999978
 31
0.0
  0
LINE
  5
85
100
AcDbEntity
  8
6.25u-bottom-row
 62
256
370
-1
 48
1.0
  6
BYLAYER
100
AcDbLine
 10
128.5451334000000543
 20
2.9644370999999978
 30
0.0
 11
128.5451334000000543
 21
2.365037099999995
 31
0.0
  0
LINE
  5
86
100
AcDbEntity
  8
6.25u-bottom-row
 62
256
370
-1
 48
1.0
  6
BYLAYER
100
AcDbLine
 10
128.5451334000000543
 20
2.365037099999995
 30
0.0
 11
142.5441334000000211
 21
2.365037099999995
 31
0.0
  0
LINE
  5
87
100
AcDbEntity
  8
6.25u-bottom-row
 62
256
370
-1
 48
1.0
  6
BYLAYER
100
AcDbLine
 10
142.5441334000000211
 20
2.365037099999995
 30
0.0
 11
142.5441334000000211
 21
2.9644370999999978
 31
0.0
  0
LINE
  5
88
100
AcDbEntity
  8
6.25u-bottom-row
 62
256
370
-1
 48
1.0
  6
BYLAYER
100
AcDbLine
 10
142.5441334000000211
 20
2.9644370999999978
 30
0.0
 11
143.3431334000000561
 21
2.9644370999999978
 31
0.0
  0
LINE
  5
89
100
AcDbEntity
  8
6.25u-bottom-row
 62
256
370
-1
 48
1.0
  6
BYLAYER
100
AcDbLine
 10
143.3431334000000561
 20
2.9644370999999978
 30
0.0
 11
143.3431334000000561
 21
7.0655371000000002
 31
0.0
  0
LINE
  5
8A
100
AcDbEntity
  8
6.25u-bottom-row
 62
256
370
-1
 48
1.0
  6
BYLAYER
100
AcDbLine
 10
143.3431334000000561
 20
7.0655371000000002
 30
0.0
 11
182.1691334000000211
 21
7.0655371000000002
 31
0.0
  0
LINE
  5
8B
100
AcDbEntity
  8
6.25u-bottom-row
 62
256
370
-1
 48
1.0
  6
BYLAYER
100
AcDbLine
 10
182.1691334000000211
 20
7.0655371000000002
 30
0.0
 11
182.1691334000000211
 21
2.5951371000000023
 31
0.0
  0
LINE
  5
8C
100
AcDbEntity
  8
6.25u-bottom-row
 62
256
370
-1
 48
1.0
  6
BYLAYER
100
AcDbLine
 10
182.1691334000000211
 20
2.5951371000000023
 30
0.0
 11
183.8951334000000202
 21
2.5951371000000023
 31
0.0
  0
LINE
  5
8D
100
AcDbEntity
  8
6.25u-bottom-row
 62
256
370
-1
 48
1.0
  6
BYLAYER
100
AcDbLine
 10
183.8951334000000202
 20
2.5951371000000023
 30
0.0
 11
183.8951334000000202
 21
1.615337100000005
 31
0.0
  0
LINE
  5
8E
100
AcDbEntity
  8
6.25u-bottom-row
 62
256
370
-1
 48
1.0
  6
BYLAYER
100
AcDbLine
 10
183.8951334000000202
 20
1.615337100000005
 30
0.0
 11
187.1941334000000552
 21
1.615337100000005
 31
0.0
  0
LINE
  5
8F
100
AcDbEntity
  8
6.25u-bottom-row
 62
256
370
-1
 48
1.0
  6
BYLAYER
100
AcDbLine
 10
187.1941334000000552
 20
1.615337100000005
 30
0.0
 11
187.1941334000000552
 21
2.5951371000000023
 31
0.0
  0
LINE
  5
90
100
AcDbEntity
  8
6.25u-bottom-row
 62
256
370
-1
 48
1.0
  6
BYLAYER
100
AcDbLine
 10
187.1941334000000552
 20
2.5951371000000023
 30
0.0
 11
188.9191334000000211
 21
2.5951371000000023
 31
0.0
  0
LINE
  5
91
100
AcDbEntity
  8
6.25u-bottom-row
 62
256
370
-1
 48
1.0
  6
BYLAYER
100
AcDbLine
 10
188.9191334000000211
 20
11.6640371000000016
 30
0.0
 11
188.9191334000000211
 21
14.8955370999999985
 31
0.0
  0
LINE
  5
92
100
AcDbEntity
  8
6.25u-bottom-row
 62
256
370
-1
 48
1.0
  6
BYLAYER
100
AcDbLine
 10
188.9191334000000211
 20
14.8955370999999985
 30
0.0
 11
187.1941334000000552
 21
14.8955370999999985
 31
0.0
  0
LINE
  5
93
100
AcDbEntity
  8
6.25u-bottom-row
 62
256
370
-1
 48
1.0
  6
BYLAYER
100
AcDbLine
 10
187.1941334000000552
 20
14.8955370999999985
 30
0.0
 11
187.1941334000000552
 21
15.8160371000000026
 31
0.0
  0
LINE
  5
94
100
AcDbEntity
  8
6.25u-bottom-row
 62
256
370
-1
 48
1.0
  6
BYLAYER
100
AcDbLine
 10
187.1941334000000552
 20
15.8160371000000026
 30
0.0
 11
183.8951334000000202
 21
15.8160371000000026
 31
0.0
  0
LINE
  5
95
100
AcDbEntity
  8
6.25u-bottom-row
 62
256
370
-1
 48
1.0
  6
BYLAYER
100
AcDbLine
 10
183.8951334000000202
 20
15.8160371000000026
 30
0.0
 11
183.8951334000000202
 21
14.8955370999999985
 31
0.0
  0
LINE
  5
96
100
AcDbEntity
  8
6.25u-bottom-row
 62
256
370
-1
 48
1.0
  6
BYLAYER
100
AcDbLine
 10
183.8951334000000202
 20
14.8955370999999985
 30
0.0
 11
182.1691334000000211
 21
14.8955370999999985
 31
0.0
  0
LINE
  5
97
100
AcDbEntity
  8
6.25u-bottom-row
 62
256
370
-1
 48
1.0
  6
BYLAYER
100
AcDbLine
 10
182.1691334000000211
 20
14.8955370999999985
 30
0.0
 11
182.1691334000000211
 21
11.6640371000000016
 31
0.0
  0
LINE
  5
98
100
AcDbEntity
  8
6.25u-bottom-row
 62
256
370
-1
 48
1.0
  6
BYLAYER
100
AcDbLine
 10
182.1691334000000211
 20
11.6640371000000016
 30
0.0
 11
143.3431334000000561
 21
11.6640371000000016
 31
0.0
  0
LINE
  5
99
100
AcDbEntity
  8
6.25u-bottom-row
 62
256
370
-1
 48
1.0
  6
BYLAYER
100
AcDbLine
 10
143.3431334000000561
 20
11.6640371000000016
 30
0.0
 11
143.3431334000000561
 21
15.7650371000000007
 31
0.0
  0
LINE
  5
9A
100
AcDbEntity
  8
6.25u-bottom-row
 62
256
370
-1
 48
1.0
  6
BYLAYER
100
AcDbLine
 10
143.3431334000000561
 20
15.7650371000000007
 30
0.0
 11
142.5441334000000211
 21
15.7650371000000007
 31
0.0
  0
LINE
  5
9B
100
AcDbEntity
  8
6.25u-bottom-row
 62
256
370
-1
 48
1.0
  6
BYLAYER
100
AcDbLine
 10
142.5441334000000211
 20
15.7650371000000007
 30
0.0
 11
142.5441334000000211
 21
16.365737100000004
 31
0.0
  0
LINE
  5
9C
100
AcDbEntity
  8
6.25u-bottom-row
 62
256
370
-1
 48
1.0
  6
BYLAYER
100
AcDbLine
 10
142.5441334000000211
 20
16.365737100000004
 30
0.0
 11
128.5451334000000543
 21
16.365737100000004
 31
0.0
  0
LINE
  5
9D
100
AcDbEntity
  8
6.25u-bottom-row
 62
256
370
-1
 48
1.0
  6
BYLAYER
100
AcDbLine
 10
30.9135334000000341
 20
16.365737100000004
 30
0.0
 11
30.9135334000000341
 21
15.7650371000000007
 31
0.0
  0
LINE
  5
9E
100
AcDbEntity
  8
6.25u-bottom-row
 62
256
370
-1
 48
1.0
  6
BYLAYER
100
AcDbLine
 10
30.9135334000000341
 20
15.7650371000000007
 30
0.0
 11
30.1127334000000246
 21
15.7650371000000007
 31
0.0
  0
LINE
  5
9F
100
AcDbEntity
  8
6.25u-bottom-row
 62
256
370
-1
 48
1.0
  6
BYLAYER
100
AcDbLine
 10
30.1127334000000246
 20
15.7650371000000007
 30
0.0
 11
30.1127334000000246
 21
2.9644370999999978
 31
0.0
  0
LINE
  5
A0
100
AcDbEntity
  8
6.25u-bottom-row
 62
256
370
-1
 48
1.0
  6
BYLAYER
100
AcDbLine
 10
30.1127334000000246
 20
2.9644370999999978
 30
0.0
 11
30.9135334000000341
 21
2.9644370999999978
 31
0.0
  0
LINE
  5
A1
100
AcDbEntity
  8
6.25u-bottom-row
 62
256
370
-1
 48
1.0
  6
BYLAYER
100
AcDbLine
 10
30.9135334000000341
 20
2.9644370999999978
 30
0.0
 11
30.9135334000000341
 21
2.365037099999995
 31
0.0
  0
LINE
  5
A2
100
AcDbEntity
  8
6.25u-bottom-row
 62
256
370
-1
 48
1.0
  6
BYLAYER
100
AcDbLine
 10
30.9135334000000341
 20
2.365037099999995
 30
0.0
 11
44.9128334000000251
 21
2.365037099999995
 31
0.0
  0
LINE
  5
A3
100
AcDbEntity
  8
6.25u-bottom-row
 62
256
370
-1
 48
1.0
  6
BYLAYER
100
AcDbLine
 10
44.9128334000000251
 20
2.365037099999995
 30
0.0
 11
44.9128334000000251
 21
2.9644370999999978
 31
0.0
  0
LINE
  5
A4
100
AcDbEntity
  8
6.25u-bottom-row
 62
256
370
-1
 48
1.0
  6
BYLAYER
100
AcDbLine
 10
44.9128334000000251
 20
2.9644370999999978
 30
0.0
 11
45.7136334000000346
 21
2.9644370999999978
 31
0.0
  0
LINE
  5
A5
100
AcDbEntity
  8
6.25u-bottom-row
 62
256
370
-1
 48
1.0
  6
BYLAYER
100
AcDbLine
 10
45.7136334000000346
 20
2.9644370999999978
 30
0.0
 11
45.7136334000000346
 21
15.7650371000000007
 31
0.0
  0
LINE
  5
A6
100
AcDbEntity
  8
6.25u-bottom-row
 62
256
370
-1
 48
1.0
  6
BYLAYER
100
AcDbLine
 10
45.7136334000000346
 20
15.7650371000000007
 30
0.0
 11
44.9128334000000251
 21
15.7650371000000007
 31
0.0
  0
LINE
  5
A7
100
AcDbEntity
  8
6.25u-bottom-row
 62
256
370
-1
 48
1.0
  6
BYLAYER
100
AcDbLine
 10
44.9128334000000251
 20
15.7650371000000007
 30
0.0
 11
44.9128334000000251
 21
16.365737100000004
 31
0.0
  0
LINE
  5
A8
100
AcDbEntity
  8
6.25u-bottom-row
 62
256
370
-1
 48
1.0
  6
BYLAYER
100
AcDbLine
 10
44.9128334000000251
 20
16.365737100000004
 30
0.0
 11
30.9135334000000341
 21
16.365737100000004
 31
0.0
  0
LINE
  5
A9
100
AcDbEntity
  8
6.25u-bottom-row
 62
256
370
-1
 48
1.0
  6
BYLAYER
100
AcDbLine
 10
54.7261334000000232
 20
16.365737100000004
 30
0.0
 11
54.7261334000000232
 21
15.7650371000000007
 31
0.0
  0
LINE
  5
AA
100
AcDbEntity
  8
6.25u-bottom-row
 62
256
370
-1
 48
1.0
  6
BYLAYER
100
AcDbLine
 10
54.7261334000000232
 20
15.7650371000000007
 30
0.0
 11
53.9271334000000309
 21
15.7650371000000007
 31
0.0
  0
LINE
  5
AB
100
AcDbEntity
  8
6.25u-bottom-row
 62
256
370
-1
 48
1.0
  6
BYLAYER
100
AcDbLine
 10
53.9271334000000309
 20
15.7650371000000007
 30
0.0
 11
53.9271334000000309
 21
2.9644370999999978
 31
0.0
  0
LINE
  5
AC
100
AcDbEntity
  8
6.25u-bottom-row
 62
256
370
-1
 48
1.0
  6
BYLAYER
100
AcDbLine
 10
53.9271334000000309
 20
2.9644370999999978
 30
0.0
 11
54.7261334000000232
 21
2.9644370999999978
 31
0.0
  0
LINE
  5
AD
100
AcDbEntity
  8
6.25u-bottom-row
 62
256
370
-1
 48
1.0
  6
BYLAYER
100
AcDbLine
 10
54.7261334000000232
 20
2.9644370999999978
 30
0.0
 11
54.7261334000000232
 21
2.365037099999995
 31
0.0
  0
LINE
  5
AE
100
AcDbEntity
  8
6.25u-bottom-row
 62
256
370
-1
 48
1.0
  6
BYLAYER
100
AcDbLine
 10
54.7261334000000232
 20
2.365037099999995
 30
0.0
 11
68.7251334000000327
 21
2.365037099999995
 31
0.0
  0
LINE
  5
AF
100
AcDbEntity
  8
6.25u-bottom-row
 62
256
370
-1
 48
1.0
  6
BYLAYER
100
AcDbLine
 10
68.7251334000000327
 20
2.365037099999995
 30
0.0
 11
68.7251334000000327
 21
2.9644370999999978
 31
0.0
  0
LINE
  5
B0
100
AcDbEntity
  8
6.25u-bottom-row
 62
256
370
-1
 48
1.0
  6
BYLAYER
100
AcDbLine
 10
68.7251334000000327
 20
2.9644370999999978
 30
0.0
 11
69.5261334000000346
 21
2.9644370999999978
 31
0.0
  0
LINE
  5
B1
100
AcDbEntity
  8
6.25u-bottom-row
 62
256
370
-1
 48
1.0
  6
BYLAYER
100
AcDbLine
 10
69.5261334000000346
 20
2.9644370999999978
 30
0.0
 11
69.5261334000000346
 21
15.7650371000000007
 31
0.0
  0
LINE
  5
B2
100
AcDbEntity
  8
6.25u-bottom-row
 62
256
370
-1
 48
1.0
  6
BYLAYER
100
AcDbLine
 10
69.5261334000000346
 20
15.7650371000000007
 30
0.0
 11
68.7251334000000327
 21
15.7650371000000007
 31
0.0
  0
LINE
  5
B3
100
AcDbEntity
  8
6.25u-bottom-row
 62
256
370
-1
 48
1.0
  6
BYLAYER
100
AcDbLine
 10
68.7251334000000327
 20
15.7650371000000007
 30
0.0
 11
68.7251334000000327
 21
16.365737100000004
 31
0.0
  0
LINE
  5
B4
100
AcDbEntity
  8
6.25u-bottom-row
 62
256
370
-1
 48
1.0
  6
BYLAYER
100
AcDbLine
 10
68.7251334000000327
 20
16.365737100000004
 30
0.0
 11
54.7261334000000232
 21
16.365737100000004
 31
0.0
  0
LINE
  5
B5
100
AcDbEntity
  8
6.25u-bottom-row
 62
256
370
-1
 48
1.0
  6
BYLAYER
100
AcDbLine
 10
202.3621334000000047
 20
16.365737100000004
 30
0.0
 11
202.3621334000000047
 21
15.7650371000000007
 31
0.0
  0
LINE
  5
B6
100
AcDbEntity
  8
6.25u-bottom-row
 62
256
370
-1
 48
1.0
  6
BYLAYER
100
AcDbLine
 10
202.3621334000000047
 20
15.7650371000000007
 30
0.0
 11
201.5631334000000265
 21
15.7650371000000007
 31
0.0
  0
LINE
  5
B7
100
AcDbEntity
  8
6.25u-bottom-row
 62
256
370
-1
 48
1.0
  6
BYLAYER
100
AcDbLine
 10
201.5631334000000265
 20
15.7650371000000007
 30
0.0
 11
201.5631334000000265
 21
2.9644370999999978
 31
0.0
  0
LINE
  5
B8
100
AcDbEntity
  8
6.25u-bottom-row
 62
256
370
-1
 48
1.0
  6
BYLAYER
100
AcDbLine
 10
201.5631334000000265
 20
2.9644370999999978
 30
0.0
 11
202.3621334000000047
 21
2.9644370999999978
 31
0.0
  0
LINE
  5
B9
100
AcDbEntity
  8
6.25u-bottom-row
 62
256
370
-1
 48
1.0
  6
BYLAYER
100
AcDbLine
 10
202.3621334000000047
 20
2.9644370999999978
 30
0.0
 11
202.3621334000000047
 21
2.365037099999995
 31
0.0
  0
LINE
  5
BA
100
AcDbEntity
  8
6.25u-bottom-row
 62
256
370
-1
 48
1.0
  6
BYLAYER
100
AcDbLine
 10
202.3621334000000047
 20
2.365037099999995
 30
0.0
 11
216.3631333999999811
 21
2.365037099999995
 31
0.0
  0
LINE
  5
BB
100
AcDbEntity
  8
6.25u-bottom-row
 62
256
370
-1
 48
1.0
  6
BYLAYER
100
AcDbLine
 10
216.3631333999999811
 20
2.365037099999995
 30
0.0
 11
216.3631333999999811
 21
2.9644370999999978
 31
0.0
  0
LINE
  5
BC
100
AcDbEntity
  8
6.25u-bottom-row
 62
256
370
-1
 48
1.0
  6
BYLAYER
100
AcDbLine
 10
216.3631333999999811
 20
2.9644370999999978
 30
0.0
 11
217.1621333999999592
 21
2.9644370999999978
 31
0.0
  0
LINE
  5
BD
100
AcDbEntity
  8
6.25u-bottom-row
 62
256
370
-1
 48
1.0
  6
BYLAYER
100
AcDbLine
 10
217.1621333999999592
 20
2.9644370999999978
 30
0.0
 11
217.1621333999999592
 21
15.7650371000000007
 31
0.0
  0
LINE
  5
BE
100
AcDbEntity
  8
6.25u-bottom-row
 62
256
370
-1
 48
1.0
  6
BYLAYER
100
AcDbLine
 10
217.1621333999999592
 20
15.7650371000000007
 30
0.0
 11
216.3631333999999811
 21
15.7650371000000007
 31
0.0
  0
LINE
  5
BF
100
AcDbEntity
  8
6.25u-bottom-row
 62
256
370
-1
 48
1.0
  6
BYLAYER
100
AcDbLine
 10
216.3631333999999811
 20
15.7650371000000007
 30
0.0
 11
216.3631333999999811
 21
16.365737100000004
 31
0.0
  0
LINE
  5
C0
100
AcDbEntity
  8
6.25u-bottom-row
 62
256
370
-1
 48
1.0
  6
BYLAYER
100
AcDbLine
 10
216.3631333999999811
 20
16.365737100000004
 30
0.0
 11
202.3621334000000047
 21
16.365737100000004
 31
0.0
  0
LINE
  5
C1
100
AcDbEntity
  8
6.25u-bottom-row
 62
256
370
-1
 48
1.0
  6
BYLAYER
100
AcDbLine
 10
226.1741334000000165
 20
16.365737100000004
 30
0.0
 11
226.1741334000000165
 21
15.7650371000000007
 31
0.0
  0
LINE
  5
C2
100
AcDbEntity
  8
6.25u-bottom-row
 62
256
370
-1
 48
1.0
  6
BYLAYER
100
AcDbLine
 10
226.1741334000000165
 20
15.7650371000000007
 30
0.0
 11
225.3751334000000384
 21
15.7650371000000007
 31
0.0
  0
LINE
  5
C3
100
AcDbEntity
  8
6.25u-bottom-row
 62
256
370
-1
 48
1.0
  6
BYLAYER
100
AcDbLine
 10
225.3751334000000384
 20
15.7650371000000007
 30
0.0
 11
225.3751334000000384
 21
2.9644370999999978
 31
0.0
  0
LINE
  5
C4
100
AcDbEntity
  8
6.25u-bottom-row
 62
256
370
-1
 48
1.0
  6
BYLAYER
100
AcDbLine
 10
225.3751334000000384
 20
2.9644370999999978
 30
0.0
 11
226.1741334000000165
 21
2.9644370999999978
 31
0.0
  0
LINE
  5
C5
100
AcDbEntity
  8
6.25u-bottom-row
 62
256
370
-1
 48
1.0
  6
BYLAYER
100
AcDbLine
 10
226.1741334000000165
 20
2.9644370999999978
 30
0.0
 11
226.1741334000000165
 21
2.365037099999995
 31
0.0
  0
LINE
  5
C6
100
AcDbEntity
  8
6.25u-bottom-row
 62
256
370
-1
 48
1.0
  6
BYLAYER
100
AcDbLine
 10
226.1741334000000165
 20
2.365037099999995
 30
0.0
 11
240.1741334000000165
 21
2.365037099999995
 31
0.0
  0
LINE
  5
C7
100
AcDbEntity
  8
6.25u-bottom-row
 62
256
370
-1
 48
1.0
  6
BYLAYER
100
AcDbLine
 10
240.1741334000000165
 20
2.365037099999995
 30
0.0
 11
240.1741334000000165
 21
2.9644370999999978
 31
0.0
  0
LINE
  5
C8
100
AcDbEntity
  8
6.25u-bottom-row
 62
256
370
-1
 48
1.0
  6
BYLAYER
100
AcDbLine
 10
240.1741334000000165
 20
2.9644370999999978
 30
0.0
 11
240.9751334000000611
 21
2.9644370999999978
 31
0.0
  0
LINE
  5
C9
100
AcDbEntity
  8
6.25u-bottom-row
 62
256
370
-1
 48
1.0
  6
BYLAYER
100
AcDbLine
 10
240.9751334000000611
 20
2.9644370999999978
 30
0.0
 11
240.9751334000000611
 21
15.7650371000000007
 31
0.0
  0
LINE
  5
CA
100
AcDbEntity
  8
6.25u-bottom-row
 62
256
370
-1
 48
1.0
  6
BYLAYER
100
AcDbLine
 10
240.9751334000000611
 20
15.7650371000000007
 30
0.0
 11
240.1741334000000165
 21
15.7650371000000007
 31
0.0
  0
LINE
  5
CB
100
AcDbEntity
  8
6.25u-bottom-row
 62
256
370
-1
 48
1.0
  6
BYLAYER
100
AcDbLine
 10
240.1741334000000165
 20
15.7650371000000007
 30
0.0
 11
240.1741334000000165
 21
16.365737100000004
 31
0.0
  0
LINE
  5
CC
100
AcDbEntity
  8
6.25u-bottom-row
 62
256
370
-1
 48
1.0
  6
BYLAYER
100
AcDbLine
 10
240.1741334000000165
 20
16.365737100000004
 30
0.0
 11
226.1741334000000165
 21
16.365737100000004
 31
0.0
  0
LINE
  5
CD
100
AcDbEntity
  8
7u-bottom-row
 62
256
370
-1
 48
1.0
  6
BYLAYER
100
AcDbLine
 10
130.9261334000000261
 20
16.3657370999999898
 30
0.0
 11
130.9261334000000261
 21
15.7650370999999865
 31
0.0
  0
LINE
  5
CE
100
AcDbEntity
  8
7u-bottom-row
 62
256
370
-1
 48
1.0
  6
BYLAYER
100
AcDbLine
 10
130.9261334000000261
 20
15.7650370999999865
 30
0.0
 11
130.1271334000000479
 21
15.7650370999999865
 31
0.0
  0
LINE
  5
CF
100
AcDbEntity
  8
7u-bottom-row
 62
256
370
-1
 48
1.0
  6
BYLAYER
100
AcDbLine
 10
130.1271334000000479
 20
15.7650370999999865
 30
0.0
 11
130.1271334000000479
 21
11.6653370999999879
 31
0.0
  0
LINE
  5
D0
100
AcDbEntity
  8
7u-bottom-row
 62
256
370
-1
 48
1.0
  6
BYLAYER
100
AcDbLine
 10
130.1271334000000479
 20
11.6653370999999879
 30
0.0
 11
84.1511334000000346
 21
11.6653370999999879
 31
0.0
  0
LINE
  5
D1
100
AcDbEntity
  8
7u-bottom-row
 62
256
370
-1
 48
1.0
  6
BYLAYER
100
AcDbLine
 10
84.1511334000000346
 20
11.6653370999999879
 30
0.0
 11
84.1511334000000346
 21
14.895437099999981
 31
0.0
  0
LINE
  5
D2
100
AcDbEntity
  8
7u-bottom-row
 62
256
370
-1
 48
1.0
  6
BYLAYER
100
AcDbLine
 10
84.1511334000000346
 20
14.895437099999981
 30
0.0
 11
82.4261334000000403
 21
14.895437099999981
 31
0.0
  0
LINE
  5
D3
100
AcDbEntity
  8
7u-bottom-row
 62
256
370
-1
 48
1.0
  6
BYLAYER
100
AcDbLine
 10
82.4261334000000403
 20
14.895437099999981
 30
0.0
 11
82.4261334000000403
 21
15.8161370999999917
 31
0.0
  0
LINE
  5
D4
100
AcDbEntity
  8
7u-bottom-row
 62
256
370
-1
 48
1.0
  6
BYLAYER
100
AcDbLine
 10
82.4261334000000403
 20
15.8161370999999917
 30
0.0
 11
79.1271334000000337
 21
15.8161370999999917
 31
0.0
  0
LINE
  5
D5
100
AcDbEntity
  8
7u-bottom-row
 62
256
370
-1
 48
1.0
  6
BYLAYER
100
AcDbLine
 10
79.1271334000000337
 20
15.8161370999999917
 30
0.0
 11
79.1271334000000337
 21
14.895437099999981
 31
0.0
  0
LINE
  5
D6
100
AcDbEntity
  8
7u-bottom-row
 62
256
370
-1
 48
1.0
  6
BYLAYER
100
AcDbLine
 10
79.1271334000000337
 20
14.895437099999981
 30
0.0
 11
77.4011334000000346
 21
14.895437099999981
 31
0.0
  0
LINE
  5
D7
100
AcDbEntity
  8
7u-bottom-row
 62
256
370
-1
 48
1.0
  6
BYLAYER
100
AcDbLine
 10
77.4011334000000346
 20
14.895437099999981
 30
0.0
 11
77.4011334000000346
 21
11.6653370999999879
 31
0.0
  0
LINE
  5
D8
100
AcDbEntity
  8
7u-bottom-row
 62
256
370
-1
 48
1.0
  6
BYLAYER
100
AcDbLine
 10
77.4011334000000346
 20
11.6653370999999879
 30
0.0
 11
76.5761334000000318
 21
11.6653370999999879
 31
0.0
  0
LINE
  5
D9
100
AcDbEntity
  8
7u-bottom-row
 62
256
370
-1
 48
1.0
  6
BYLAYER
100
AcDbLine
 10
76.5761334000000318
 20
11.6653370999999879
 30
0.0
 11
76.5761334000000318
 21
8.8664370999999846
 31
0.0
  0
LINE
  5
DA
100
AcDbEntity
  8
7u-bottom-row
 62
256
370
-1
 48
1.0
  6
BYLAYER
100
AcDbLine
 10
76.5761334000000318
 20
8.8664370999999846
 30
0.0
 11
77.4011334000000346
 21
8.8664370999999846
 31
0.0
  0
LINE
  5
DB
100
AcDbEntity
  8
7u-bottom-row
 62
256
370
-1
 48
1.0
  6
BYLAYER
100
AcDbLine
 10
77.4011334000000346
 20
8.8664370999999846
 30
0.0
 11
77.4011334000000346
 21
2.5965370999999919
 31
0.0
  0
LINE
  5
DC
100
AcDbEntity
  8
7u-bottom-row
 62
256
370
-1
 48
1.0
  6
BYLAYER
100
AcDbLine
 10
77.4011334000000346
 20
2.5965370999999919
 30
0.0
 11
79.1271334000000337
 21
2.5965370999999919
 31
0.0
  0
LINE
  5
DD
100
AcDbEntity
  8
7u-bottom-row
 62
256
370
-1
 48
1.0
  6
BYLAYER
100
AcDbLine
 10
79.1271334000000337
 20
2.5965370999999919
 30
0.0
 11
79.1271334000000337
 21
1.6154370999999799
 31
0.0
  0
LINE
  5
DE
100
AcDbEntity
  8
7u-bottom-row
 62
256
370
-1
 48
1.0
  6
BYLAYER
100
AcDbLine
 10
79.1271334000000337
 20
1.6154370999999799
 30
0.0
 11
82.4261334000000403
 21
1.6154370999999799
 31
0.0
  0
LINE
  5
DF
100
AcDbEntity
  8
7u-bottom-row
 62
256
370
-1
 48
1.0
  6
BYLAYER
100
AcDbLine
 10
82.4261334000000403
 20
1.6154370999999799
 30
0.0
 11
82.4261334000000403
 21
2.5965370999999919
 31
0.0
  0
LINE
  5
E0
100
AcDbEntity
  8
7u-bottom-row
 62
256
370
-1
 48
1.0
  6
BYLAYER
100
AcDbLine
 10
82.4261334000000403
 20
2.5965370999999919
 30
0.0
 11
84.1511334000000346
 21
2.5965370999999919
 31
0.0
  0
LINE
  5
E1
100
AcDbEntity
  8
7u-bottom-row
 62
256
370
-1
 48
1.0
  6
BYLAYER
100
AcDbLine
 10
84.1511334000000346
 20
2.5965370999999919
 30
0.0
 11
84.1511334000000346
 21
7.065537099999986
 31
0.0
  0
LINE
  5
E2
100
AcDbEntity
  8
7u-bottom-row
 62
256
370
-1
 48
1.0
  6
BYLAYER
100
AcDbLine
 10
84.1511334000000346
 20
7.065537099999986
 30
0.0
 11
130.1271334000000479
 21
7.065537099999986
 31
0.0
  0
LINE
  5
E3
100
AcDbEntity
  8
7u-bottom-row
 62
256
370
-1
 48
1.0
  6
BYLAYER
100
AcDbLine
 10
130.1271334000000479
 20
7.065537099999986
 30
0.0
 11
130.1271334000000479
 21
2.9644370999999836
 31
0.0
  0
LINE
  5
E4
100
AcDbEntity
  8
7u-bottom-row
 62
256
370
-1
 48
1.0
  6
BYLAYER
100
AcDbLine
 10
130.1271334000000479
 20
2.9644370999999836
 30
0.0
 11
130.9261334000000261
 21
2.9644370999999836
 31
0.0
  0
LINE
  5
E5
100
AcDbEntity
  8
7u-bottom-row
 62
256
370
-1
 48
1.0
  6
BYLAYER
100
AcDbLine
 10
130.9261334000000261
 20
2.9644370999999836
 30
0.0
 11
130.9261334000000261
 21
2.3664370999999846
 31
0.0
  0
LINE
  5
E6
100
AcDbEntity
  8
7u-bottom-row
 62
256
370
-1
 48
1.0
  6
BYLAYER
100
AcDbLine
 10
130.9261334000000261
 20
2.3664370999999846
 30
0.0
 11
144.9271334000000024
 21
2.3664370999999846
 31
0.0
  0
LINE
  5
E7
100
AcDbEntity
  8
7u-bottom-row
 62
256
370
-1
 48
1.0
  6
BYLAYER
100
AcDbLine
 10
144.9271334000000024
 20
2.3664370999999846
 30
0.0
 11
144.9271334000000024
 21
2.9644370999999836
 31
0.0
  0
LINE
  5
E8
100
AcDbEntity
  8
7u-bottom-row
 62
256
370
-1
 48
1.0
  6
BYLAYER
100
AcDbLine
 10
144.9271334000000024
 20
2.9644370999999836
 30
0.0
 11
145.7261334000000375
 21
2.9644370999999836
 31
0.0
  0
LINE
  5
E9
100
AcDbEntity
  8
7u-bottom-row
 62
256
370
-1
 48
1.0
  6
BYLAYER
100
AcDbLine
 10
145.7261334000000375
 20
2.9644370999999836
 30
0.0
 11
145.7261334000000375
 21
7.065537099999986
 31
0.0
  0
LINE
  5
EA
100
AcDbEntity
  8
7u-bottom-row
 62
256
370
-1
 48
1.0
  6
BYLAYER
100
AcDbLine
 10
145.7261334000000375
 20
7.065537099999986
 30
0.0
 11
191.700133400000027
 21
7.065537099999986
 31
0.0
  0
LINE
  5
EB
100
AcDbEntity
  8
7u-bottom-row
 62
256
370
-1
 48
1.0
  6
BYLAYER
100
AcDbLine
 10
191.700133400000027
 20
7.065537099999986
 30
0.0
 11
191.700133400000027
 21
2.5965370999999919
 31
0.0
  0
LINE
  5
EC
100
AcDbEntity
  8
7u-bottom-row
 62
256
370
-1
 48
1.0
  6
BYLAYER
100
AcDbLine
 10
191.700133400000027
 20
2.5965370999999919
 30
0.0
 11
193.4271334000000024
 21
2.5965370999999919
 31
0.0
  0
LINE
  5
ED
100
AcDbEntity
  8
7u-bottom-row
 62
256
370
-1
 48
1.0
  6
BYLAYER
100
AcDbLine
 10
193.4271334000000024
 20
2.5965370999999919
 30
0.0
 11
193.4271334000000024
 21
1.6154370999999799
 31
0.0
  0
LINE
  5
EE
100
AcDbEntity
  8
7u-bottom-row
 62
256
370
-1
 48
1.0
  6
BYLAYER
100
AcDbLine
 10
193.4271334000000024
 20
1.6154370999999799
 30
0.0
 11
196.7261334000000375
 21
1.6154370999999799
 31
0.0
  0
LINE
  5
EF
100
AcDbEntity
  8
7u-bottom-row
 62
256
370
-1
 48
1.0
  6
BYLAYER
100
AcDbLine
 10
196.7261334000000375
 20
1.6154370999999799
 30
0.0
 11
196.7261334000000375
 21
2.5965370999999919
 31
0.0
  0
LINE
  5
F0
100
AcDbEntity
  8
7u-bottom-row
 62
256
370
-1
 48
1.0
  6
BYLAYER
100
AcDbLine
 10
196.7261334000000375
 20
2.5965370999999919
 30
0.0
 11
198.450133400000027
 21
2.5965370999999919
 31
0.0
  0
LINE
  5
F1
100
AcDbEntity
  8
7u-bottom-row
 62
256
370
-1
 48
1.0
  6
BYLAYER
100
AcDbLine
 10
198.450133400000027
 20
2.5965370999999919
 30
0.0
 11
198.450133400000027
 21
8.8664370999999846
 31
0.0
  0
LINE
  5
F2
100
AcDbEntity
  8
7u-bottom-row
 62
256
370
-1
 48
1.0
  6
BYLAYER
100
AcDbLine
 10
198.450133400000027
 20
8.8664370999999846
 30
0.0
 11
199.2771334000000252
 21
8.8664370999999846
 31
0.0
  0
LINE
  5
F3
100
AcDbEntity
  8
7u-bottom-row
 62
256
370
-1
 48
1.0
  6
BYLAYER
100
AcDbLine
 10
199.2771334000000252
 20
8.8664370999999846
 30
0.0
 11
199.2771334000000252
 21
11.6653370999999879
 31
0.0
  0
LINE
  5
F4
100
AcDbEntity
  8
7u-bottom-row
 62
256
370
-1
 48
1.0
  6
BYLAYER
100
AcDbLine
 10
199.2771334000000252
 20
11.6653370999999879
 30
0.0
 11
198.450133400000027
 21
11.6653370999999879
 31
0.0
  0
LINE
  5
F5
100
AcDbEntity
  8
7u-bottom-row
 62
256
370
-1
 48
1.0
  6
BYLAYER
100
AcDbLine
 10
198.450133400000027
 20
11.6653370999999879
 30
0.0
 11
198.450133400000027
 21
14.895437099999981
 31
0.0
  0
LINE
  5
F6
100
AcDbEntity
  8
7u-bottom-row
 62
256
370
-1
 48
1.0
  6
BYLAYER
100
AcDbLine
 10
198.450133400000027
 20
14.895437099999981
 30
0.0
 11
196.7261334000000375
 21
14.895437099999981
 31
0.0
  0
LINE
  5
F7
100
AcDbEntity
  8
7u-bottom-row
 62
256
370
-1
 48
1.0
  6
BYLAYER
100
AcDbLine
 10
196.7261334000000375
 20
14.895437099999981
 30
0.0
 11
196.7261334000000375
 21
15.8161370999999917
 31
0.0
  0
LINE
  5
F8
100
AcDbEntity
  8
7u-bottom-row
 62
256
370
-1
 48
1.0
  6
BYLAYER
100
AcDbLine
 10
196.7261334000000375
 20
15.8161370999999917
 30
0.0
 11
193.4271334000000024
 21
15.8161370999999917
 31
0.0
  0
LINE
  5
F9
100
AcDbEntity
  8
7u-bottom-row
 62
256
370
-1
 48
1.0
  6
BYLAYER
100
AcDbLine
 10
193.4271334000000024
 20
15.8161370999999917
 30
0.0
 11
193.4271334000000024
 21
14.895437099999981
 31
0.0
  0
LINE
  5
FA
100
AcDbEntity
  8
7u-bottom-row
 62
256
370
-1
 48
1.0
  6
BYLAYER
100
AcDbLine
 10
193.4271334000000024
 20
14.895437099999981
 30
0.0
 11
191.700133400000027
 21
14.895437099999981
 31
0.0
  0
LINE
  5
FB
100
AcDbEntity
  8
7u-bottom-row
 62
256
370
-1
 48
1.0
  6
BYLAYER
100
AcDbLine
 10
145.7261334000000375
 20
11.6653370999999879
 30
0.0
 11
145.7261334000000375
 21
15.7650370999999865
 31
0.0
  0
LINE
  5
FC
100
AcDbEntity
  8
7u-bottom-row
 62
256
370
-1
 48
1.0
  6
BYLAYER
100
AcDbLine
 10
145.7261334000000375
 20
15.7650370999999865
 30
0.0
 11
144.9271334000000024
 21
15.7650370999999865
 31
0.0
  0
LINE
  5
FD
100
AcDbEntity
  8
7u-bottom-row
 62
256
370
-1
 48
1.0
  6
BYLAYER
100
AcDbLine
 10
144.9271334000000024
 20
15.7650370999999865
 30
0.0
 11
144.9271334000000024
 21
16.3657370999999898
 31
0.0
  0
LINE
  5
FE
100
AcDbEntity
  8
7u-bottom-row
 62
256
370
-1
 48
1.0
  6
BYLAYER
100
AcDbLine
 10
144.9271334000000024
 20
16.3657370999999898
 30
0.0
 11
130.9261334000000261
 21
16.3657370999999898
 31
0.0
  0
LINE
  5
FF
100
AcDbEntity
  8
7u-bottom-row
 62
256
370
-1
 48
1.0
  6
BYLAYER
100
AcDbLine
 10
30.9135334000000341
 20
16.3657370999999898
 30
0.0
 11
30.9135334000000341
 21
15.7650370999999865
 31
0.0
  0
LINE
  5
100
100
AcDbEntity
  8
7u-bottom-row
 62
256
370
-1
 48
1.0
  6
BYLAYER
100
AcDbLine
 10
30.9135334000000341
 20
15.7650370999999865
 30
0.0
 11
30.1127334000000246
 21
15.7650370999999865
 31
0.0
  0
LINE
  5
101
100
AcDbEntity
  8
7u-bottom-row
 62
256
370
-1
 48
1.0
  6
BYLAYER
100
AcDbLine
 10
30.1127334000000246
 20
15.7650370999999865
 30
0.0
 11
30.1127334000000246
 21
2.9644370999999836
 31
0.0
  0
LINE
  5
102
100
AcDbEntity
  8
7u-bottom-row
 62
256
370
-1
 48
1.0
  6
BYLAYER
100
AcDbLine
 10
30.1127334000000246
 20
2.9644370999999836
 30
0.0
 11
30.9135334000000341
 21
2.9644370999999836
 31
0.0
  0
LINE
  5
103
100
AcDbEntity
  8
7u-bottom-row
 62
256
370
-1
 48
1.0
  6
BYLAYER
100
AcDbLine
 10
30.9135334000000341
 20
2.9644370999999836
 30
0.0
 11
30.9135334000000341
 21
2.3664370999999846
 31
0.0
  0
LINE
  5
104
100
AcDbEntity
  8
7u-bottom-row
 62
256
370
-1
 48
1.0
  6
BYLAYER
100
AcDbLine
 10
30.9135334000000341
 20
2.3664370999999846
 30
0.0
 11
44.9128334000000251
 21
2.3664370999999846
 31
0.0
  0
LINE
  5
105
100
AcDbEntity
  8
7u-bottom-row
 62
256
370
-1
 48
1.0
  6
BYLAYER
100
AcDbLine
 10
44.9128334000000251
 20
2.3664370999999846
 30
0.0
 11
44.9128334000000251
 21
2.9644370999999836
 31
0.0
  0
LINE
  5
106
100
AcDbEntity
  8
7u-bottom-row
 62
256
370
-1
 48
1.0
  6
BYLAYER
100
AcDbLine
 10
44.9128334000000251
 20
2.9644370999999836
 30
0.0
 11
45.7136334000000346
 21
2.9644370999999836
 31
0.0
  0
LINE
  5
107
100
AcDbEntity
  8
7u-bottom-row
 62
256
370
-1
 48
1.0
  6
BYLAYER
100
AcDbLine
 10
45.7136334000000346
 20
2.9644370999999836
 30
0.0
 11
45.7136334000000346
 21
15.7650370999999865
 31
0.0
  0
LINE
  5
108
100
AcDbEntity
  8
7u-bottom-row
 62
256
370
-1
 48
1.0
  6
BYLAYER
100
AcDbLine
 10
45.7136334000000346
 20
15.7650370999999865
 30
0.0
 11
44.9128334000000251
 21
15.7650370999999865
 31
0.0
  0
LINE
  5
109
100
AcDbEntity
  8
7u-bottom-row
 62
256
370
-1
 48
1.0
  6
BYLAYER
100
AcDbLine
 10
44.9128334000000251
 20
15.7650370999999865
 30
0.0
 11
44.9128334000000251
 21
16.3657370999999898
 31
0.0
  0
LINE
  5
10A
100
AcDbEntity
  8
7u-bottom-row
 62
256
370
-1
 48
1.0
  6
BYLAYER
100
AcDbLine
 10
44.9128334000000251
 20
16.3657370999999898
 30
0.0
 11
30.9135334000000341
 21
16.3657370999999898
 31
0.0
  0
LINE
  5
10B
100
AcDbEntity
  8
7u-bottom-row
 62
256
370
-1
 48
1.0
  6
BYLAYER
100
AcDbLine
 10
52.345133400000023
 20
16.3657370999999898
 30
0.0
 11
52.345133400000023
 21
15.7650370999999865
 31
0.0
  0
LINE
  5
10C
100
AcDbEntity
  8
7u-bottom-row
 62
256
370
-1
 48
1.0
  6
BYLAYER
100
AcDbLine
 10
52.345133400000023
 20
15.7650370999999865
 30
0.0
 11
51.5439334000000287
 21
15.7650370999999865
 31
0.0
  0
LINE
  5
10D
100
AcDbEntity
  8
7u-bottom-row
 62
256
370
-1
 48
1.0
  6
BYLAYER
100
AcDbLine
 10
51.5439334000000287
 20
15.7650370999999865
 30
0.0
 11
51.5439334000000287
 21
2.9644370999999836
 31
0.0
  0
LINE
  5
10E
100
AcDbEntity
  8
7u-bottom-row
 62
256
370
-1
 48
1.0
  6
BYLAYER
100
AcDbLine
 10
51.5439334000000287
 20
2.9644370999999836
 30
0.0
 11
52.345133400000023
 21
2.9644370999999836
 31
0.0
  0
LINE
  5
10F
100
AcDbEntity
  8
7u-bottom-row
 62
256
370
-1
 48
1.0
  6
BYLAYER
100
AcDbLine
 10
52.345133400000023
 20
2.9644370999999836
 30
0.0
 11
52.345133400000023
 21
2.3664370999999846
 31
0.0
  0
LINE
  5
110
100
AcDbEntity
  8
7u-bottom-row
 62
256
370
-1
 48
1.0
  6
BYLAYER
100
AcDbLine
 10
52.345133400000023
 20
2.3664370999999846
 30
0.0
 11
66.3441334000000325
 21
2.3664370999999846
 31
0.0
  0
LINE
  5
111
100
AcDbEntity
  8
7u-bottom-row
 62
256
370
-1
 48
1.0
  6
BYLAYER
100
AcDbLine
 10
66.3441334000000325
 20
2.3664370999999846
 30
0.0
 11
66.3441334000000325
 21
2.9644370999999836
 31
0.0
  0
LINE
  5
112
100
AcDbEntity
  8
7u-bottom-row
 62
256
370
-1
 48
1.0
  6
BYLAYER
100
AcDbLine
 10
66.3441334000000325
 20
2.9644370999999836
 30
0.0
 11
67.1451334000000344
 21
2.9644370999999836
 31
0.0
  0
LINE
  5
113
100
AcDbEntity
  8
7u-bottom-row
 62
256
370
-1
 48
1.0
  6
BYLAYER
100
AcDbLine
 10
67.1451334000000344
 20
2.9644370999999836
 30
0.0
 11
67.1451334000000344
 21
15.7650370999999865
 31
0.0
  0
LINE
  5
114
100
AcDbEntity
  8
7u-bottom-row
 62
256
370
-1
 48
1.0
  6
BYLAYER
100
AcDbLine
 10
67.1451334000000344
 20
15.7650370999999865
 30
0.0
 11
66.3441334000000325
 21
15.7650370999999865
 31
0.0
  0
LINE
  5
115
100
AcDbEntity
  8
7u-bottom-row
 62
256
370
-1
 48
1.0
  6
BYLAYER
100
AcDbLine
 10
66.3441334000000325
 20
15.7650370999999865
 30
0.0
 11
66.3441334000000325
 21
16.3657370999999898
 31
0.0
  0
LINE
  5
116
100
AcDbEntity
  8
7u-bottom-row
 62
256
370
-1
 48
1.0
  6
BYLAYER
100
AcDbLine
 10
66.3441334000000325
 20
16.3657370999999898
 30
0.0
 11
52.345133400000023
 21
16.3657370999999898
 31
0.0
  0
LINE
  5
117
100
AcDbEntity
  8
7u-bottom-row
 62
256
370
-1
 48
1.0
  6
BYLAYER
100
AcDbLine
 10
209.506133400000067
 20
16.3657370999999898
 30
0.0
 11
209.506133400000067
 21
15.7650370999999865
 31
0.0
  0
LINE
  5
118
100
AcDbEntity
  8
7u-bottom-row
 62
256
370
-1
 48
1.0
  6
BYLAYER
100
AcDbLine
 10
209.506133400000067
 20
15.7650370999999865
 30
0.0
 11
208.7061334000000556
 21
15.7650370999999865
 31
0.0
  0
LINE
  5
119
100
AcDbEntity
  8
7u-bottom-row
 62
256
370
-1
 48
1.0
  6
BYLAYER
100
AcDbLine
 10
208.7061334000000556
 20
15.7650370999999865
 30
0.0
 11
208.7061334000000556
 21
2.9644370999999836
 31
0.0
  0
LINE
  5
11A
100
AcDbEntity
  8
7u-bottom-row
 62
256
370
-1
 48
1.0
  6
BYLAYER
100
AcDbLine
 10
208.7061334000000556
 20
2.9644370999999836
 30
0.0
 11
209.506133400000067
 21
2.9644370999999836
 31
0.0
  0
LINE
  5
11B
100
AcDbEntity
  8
7u-bottom-row
 62
256
370
-1
 48
1.0
  6
BYLAYER
100
AcDbLine
 10
209.506133400000067
 20
2.9644370999999836
 30
0.0
 11
209.506133400000067
 21
2.3664370999999846
 31
0.0
  0
LINE
  5
11C
100
AcDbEntity
  8
7u-bottom-row
 62
256
370
-1
 48
1.0
  6
BYLAYER
100
AcDbLine
 10
209.506133400000067
 20
2.3664370999999846
 30
0.0
 11
223.5061334000000102
 21
2.3664370999999846
 31
0.0
  0
LINE
  5
11D
100
AcDbEntity
  8
7u-bottom-row
 62
256
370
-1
 48
1.0
  6
BYLAYER
100
AcDbLine
 10
223.5061334000000102
 20
2.3664370999999846
 30
0.0
 11
223.5061334000000102
 21
2.9644370999999836
 31
0.0
  0
LINE
  5
11E
100
AcDbEntity
  8
7u-bottom-row
 62
256
370
-1
 48
1.0
  6
BYLAYER
100
AcDbLine
 10
223.5061334000000102
 20
2.9644370999999836
 30
0.0
 11
224.3061333999999647
 21
2.9644370999999836
 31
0.0
  0
LINE
  5
11F
100
AcDbEntity
  8
7u-bottom-row
 62
256
370
-1
 48
1.0
  6
BYLAYER
100
AcDbLine
 10
224.3061333999999647
 20
2.9644370999999836
 30
0.0
 11
224.3061333999999647
 21
15.7650370999999865
 31
0.0
  0
LINE
  5
120
100
AcDbEntity
  8
7u-bottom-row
 62
256
370
-1
 48
1.0
  6
BYLAYER
100
AcDbLine
 10
224.3061333999999647
 20
15.7650370999999865
 30
0.0
 11
223.5061334000000102
 21
15.7650370999999865
 31
0.0
  0
LINE
  5
121
100
AcDbEntity
  8
7u-bottom-row
 62
256
370
-1
 48
1.0
  6
BYLAYER
100
AcDbLine
 10
223.5061334000000102
 20
15.7650370999999865
 30
0.0
 11
223.5061334000000102
 21
16.3657370999999898
 31
0.0
  0
LINE
  5
122
100
AcDbEntity
  8
7u-bottom-row
 62
256
370
-1
 48
1.0
  6
BYLAYER
100
AcDbLine
 10
223.5061334000000102
 20
16.3657370999999898
 30
0.0
 11
209.506133400000067
 21
16.3657370999999898
 31
0.0
  0
LINE
  5
123
100
AcDbEntity
  8
7u-bottom-row
 62
256
370
-1
 48
1.0
  6
BYLAYER
100
AcDbLine
 10
230.9371334000000502
 20
16.3657370999999898
 30
0.0
 11
230.9371334000000502
 21
15.7650370999999865
 31
0.0
  0
LINE
  5
124
100
AcDbEntity
  8
7u-bottom-row
 62
256
370
-1
 48
1.0
  6
BYLAYER
100
AcDbLine
 10
230.9371334000000502
 20
15.7650370999999865
 30
0.0
 11
230.138133400000072
 21
15.7650370999999865
 31
0.0
  0
LINE
  5
125
100
AcDbEntity
  8
7u-bottom-row
 62
256
370
-1
 48
1.0
  6
BYLAYER
100
AcDbLine
 10
230.138133400000072
 20
15.7650370999999865
 30
0.0
 11
230.138133400000072
 21
2.9644370999999836
 31
0.0
  0
LINE
  5
126
100
AcDbEntity
  8
7u-bottom-row
 62
256
370
-1
 48
1.0
  6
BYLAYER
100
AcDbLine
 10
230.138133400000072
 20
2.9644370999999836
 30
0.0
 11
230.9371334000000502
 21
2.9644370999999836
 31
0.0
  0
LINE
  5
127
100
AcDbEntity
  8
7u-bottom-row
 62
256
370
-1
 48
1.0
  6
BYLAYER
100
AcDbLine
 10
230.9371334000000502
 20
2.9644370999999836
 30
0.0
 11
230.9371334000000502
 21
2.3664370999999846
 31
0.0
  0
LINE
  5
128
100
AcDbEntity
  8
7u-bottom-row
 62
256
370
-1
 48
1.0
  6
BYLAYER
100
AcDbLine
 10
230.9371334000000502
 20
2.3664370999999846
 30
0.0
 11
244.9381334000000265
 21
2.3664370999999846
 31
0.0
  0
LINE
  5
129
100
AcDbEntity
  8
7u-bottom-row
 62
256
370
-1
 48
1.0
  6
BYLAYER
100
AcDbLine
 10
244.9381334000000265
 20
2.3664370999999846
 30
0.0
 11
244.9381334000000265
 21
2.9644370999999836
 31
0.0
  0
LINE
  5
12A
100
AcDbEntity
  8
7u-bottom-row
 62
256
370
-1
 48
1.0
  6
BYLAYER
100
AcDbLine
 10
244.9381334000000265
 20
2.9644370999999836
 30
0.0
 11
245.7371334000000047
 21
2.9644370999999836
 31
0.0
  0
LINE
  5
12B
100
AcDbEntity
  8
7u-bottom-row
 62
256
370
-1
 48
1.0
  6
BYLAYER
100
AcDbLine
 10
245.7371334000000047
 20
2.9644370999999836
 30
0.0
 11
245.7371334000000047
 21
15.7650370999999865
 31
0.0
  0
LINE
  5
12C
100
AcDbEntity
  8
7u-bottom-row
 62
256
370
-1
 48
1.0
  6
BYLAYER
100
AcDbLine
 10
245.7371334000000047
 20
15.7650370999999865
 30
0.0
 11
244.9381334000000265
 21
15.7650370999999865
 31
0.0
  0
LINE
  5
12D
100
AcDbEntity
  8
7u-bottom-row
 62
256
370
-1
 48
1.0
  6
BYLAYER
100
AcDbLine
 10
244.9381334000000265
 20
15.7650370999999865
 30
0.0
 11
244.9381334000000265
 21
16.3657370999999898
 31
0.0
  0
LINE
  5
12E
100
AcDbEntity
  8
7u-bottom-row
 62
256
370
-1
 48
1.0
  6
BYLAYER
100
AcDbLine
 10
244.9381334000000265
 20
16.3657370999999898
 30
0.0
 11
230.9371334000000502
 21
16.3657370999999898
 31
0.0
  0
INSERT
  5
12F
100
AcDbEntity
  8
0
 62
256
370
-1
 48
1.0
  6
BYLAYER
100
AcDbBlockReference
  2
Switch
 10
221.6879479706976781
 20
21.2183649033782409
 30
0.0
  0
INSERT
  5
130
100
AcDbEntity
  8
0
 62
256
370
-1
 48
1.0
  6
BYLAYER
100
AcDbBlockReference
  2
Switch
 10
202.6379479706976952
 20
21.2183649033782196
 30
0.0
  0
INSERT
  5
131
100
AcDbEntity
  8
0
 62
256
370
-1
 48
1.0
  6
BYLAYER
100
AcDbBlockReference
  2
Switch
 10
183.5888659581450781
 20
21.2183630572035611
 30
0.0
  0
INSERT
  5
132
100
AcDbEntity
  8
0
 62
256
370
-1
 48
1.0
  6
BYLAYER
100
AcDbBlockReference
  2
Switch
 10
164.5389059588539169
 20
21.2183264824641817
 30
0.0
  0
INSERT
  5
133
100
AcDbEntity
  8
0
 62
256
370
-1
 48
1.0
  6
BYLAYER
100
AcDbBlockReference
  2
Switch
 10
145.4878639470100836
 20
21.2182880615501901
 30
0.0
  0
INSERT
  5
134
100
AcDbEntity
  8
0
 62
256
370
-1
 48
1.0
  6
BYLAYER
100
AcDbBlockReference
  2
Switch
 10
126.4388239335997071
 20
21.2184014824424878
 30
0.0
  0
INSERT
  5
135
100
AcDbEntity
  8
0
 62
256
370
-1
 48
1.0
  6
BYLAYER
100
AcDbBlockReference
  2
Switch
 10
107.3878239463012534
 20
21.2184014833429622
 30
0.0
  0
INSERT
  5
136
100
AcDbEntity
  8
0
 62
256
370
-1
 48
1.0
  6
BYLAYER
100
AcDbBlockReference
  2
Switch
 10
88.338855958853884
 20
21.2183264824642066
 30
0.0
  0
INSERT
  5
137
100
AcDbEntity
  8
0
 62
256
370
-1
 48
1.0
  6
BYLAYER
100
AcDbBlockReference
  2
Switch
 10
69.2889229822180397
 20
21.2183877678646695
 30
0.0
  0
INSERT
  5
138
100
AcDbEntity
  8
0
 62
256
370
-1
 48
1.0
  6
BYLAYER
100
AcDbBlockReference
  2
Switch
 10
50.2329822638360639
 20
21.2413107426559264
 30
0.0
  0
INSERT
  5
139
100
AcDbEntity
  8
0
 62
256
370
-1
 48
1.0
  6
BYLAYER
100
AcDbBlockReference
  2
Switch
 10
231.2134059252365716
 20
40.2679192681780194
 30
0.0
  0
INSERT
  5
13A
100
AcDbEntity
  8
0
 62
256
370
-1
 48
1.0
  6
BYLAYER
100
AcDbBlockReference
  2
Switch
 10
212.1634606007141315
 20
40.2678692679973267
 30
0.0
  0
INSERT
  5
13B
100
AcDbEntity
  8
0
 62
256
370
-1
 48
1.0
  6
BYLAYER
100
AcDbBlockReference
  2
Switch
 10
193.1129059588538723
 20
40.2683764824641983
 30
0.0
  0
INSERT
  5
13C
100
AcDbEntity
  8
0
 62
256
370
-1
 48
1.0
  6
BYLAYER
100
AcDbBlockReference
  2
Switch
 10
174.063891275793253
 20
40.2683630571761455
 30
0.0
  0
INSERT
  5
13D
100
AcDbEntity
  8
0
 62
256
370
-1
 48
1.0
  6
BYLAYER
100
AcDbBlockReference
  2
Switch
 10
155.0128512836052721
 20
40.2684264828547711
 30
0.0
  0
INSERT
  5
13E
100
AcDbEntity
  8
0
 62
256
370
-1
 48
1.0
  6
BYLAYER
100
AcDbBlockReference
  2
Switch
 10
97.8628409588860109
 20
40.2684901999019829
 30
0.0
  0
INSERT
  5
13F
100
AcDbEntity
  8
0
 62
256
370
-1
 48
1.0
  6
BYLAYER
100
AcDbBlockReference
  2
Switch
 10
78.8137315933962554
 20
40.2683901981567516
 30
0.0
  0
INSERT
  5
140
100
AcDbEntity
  8
0
 62
256
370
-1
 48
1.0
  6
BYLAYER
100
AcDbBlockReference
  2
Switch
 10
59.7625809737290297
 20
40.2687651248425027
 30
0.0
  0
INSERT
  5
141
100
AcDbEntity
  8
0
 62
256
370
-1
 48
1.0
  6
BYLAYER
100
AcDbBlockReference
  2
Switch
 10
40.7135612769649455
 20
40.268463057596712
 30
0.0
  0
INSERT
  5
142
100
AcDbEntity
  8
0
 62
256
370
-1
 48
1.0
  6
BYLAYER
100
AcDbBlockReference
  2
Switch
 10
12.1380350094229907
 20
59.3191264859797371
 30
0.0
  0
INSERT
  5
143
100
AcDbEntity
  8
0
 62
256
370
-1
 48
1.0
  6
BYLAYER
100
AcDbBlockReference
  2
Switch
 10
35.9503759588538898
 20
59.3192764824641898
 30
0.0
  0
INSERT
  5
144
100
AcDbEntity
  8
0
 62
256
370
-1
 48
1.0
  6
BYLAYER
100
AcDbBlockReference
  2
Switch
 10
55.0004959590824569
 20
59.3189399077015764
 30
0.0
  0
INSERT
  5
145
100
AcDbEntity
  8
0
 62
256
370
-1
 48
1.0
  6
BYLAYER
100
AcDbBlockReference
  2
Switch
 10
74.0503959616539476
 20
59.3191044923044757
 30
0.0
  0
INSERT
  5
146
100
AcDbEntity
  8
0
 62
256
370
-1
 48
1.0
  6
BYLAYER
100
AcDbBlockReference
  2
Switch
 10
93.1005059614253412
 20
59.319367912341761
 30
0.0
  0
INSERT
  5
147
100
AcDbEntity
  8
0
 62
256
370
-1
 48
1.0
  6
BYLAYER
100
AcDbBlockReference
  2
Switch
 10
112.1498659586253126
 20
59.3190130527859054
 30
0.0
  0
INSERT
  5
148
100
AcDbEntity
  8
0
 62
256
370
-1
 48
1.0
  6
BYLAYER
100
AcDbBlockReference
  2
Switch
 10
131.200325958853881
 20
59.3192764824641898
 30
0.0
  0
INSERT
  5
149
100
AcDbEntity
  8
0
 62
256
370
-1
 48
1.0
  6
BYLAYER
100
AcDbBlockReference
  2
Switch
 10
150.2498659586252927
 20
59.319013052785877
 30
0.0
  0
INSERT
  5
14A
100
AcDbEntity
  8
0
 62
256
370
-1
 48
1.0
  6
BYLAYER
100
AcDbBlockReference
  2
Switch
 10
169.3004059588538723
 20
59.3192764824641898
 30
0.0
  0
INSERT
  5
14B
100
AcDbEntity
  8
0
 62
256
370
-1
 48
1.0
  6
BYLAYER
100
AcDbBlockReference
  2
Switch
 10
188.3503659586253605
 20
59.3192399112445941
 30
0.0
  0
INSERT
  5
14C
100
AcDbEntity
  8
0
 62
256
370
-1
 48
1.0
  6
BYLAYER
100
AcDbBlockReference
  2
Switch
 10
207.400070029227237
 20
59.3191264842656096
 30
0.0
  0
INSERT
  5
14D
100
AcDbEntity
  8
0
 62
256
370
-1
 48
1.0
  6
BYLAYER
100
AcDbBlockReference
  2
Switch
 10
226.4501559706391731
 20
59.3192782001171537
 30
0.0
  0
INSERT
  5
14E
100
AcDbEntity
  8
0
 62
256
370
-1
 48
1.0
  6
BYLAYER
100
AcDbBlockReference
  2
Switch
 10
245.4999459590823676
 20
59.3190130527859054
 30
0.0
  0
INSERT
  5
14F
100
AcDbEntity
  8
0
 62
256
370
-1
 48
1.0
  6
BYLAYER
100
AcDbBlockReference
  2
Switch
 10
269.3129459586253347
 20
59.3190130584286379
 30
0.0
  0
INSERT
  5
150
100
AcDbEntity
  8
0
 62
256
370
-1
 48
1.0
  6
BYLAYER
100
AcDbBlockReference
  2
Switch
 10
274.0748259588538644
 20
78.3692764824642154
 30
0.0
  0
INSERT
  5
151
100
AcDbEntity
  8
0
 62
256
370
-1
 48
1.0
  6
BYLAYER
100
AcDbBlockReference
  2
Switch
 10
255.0248259588539099
 20
78.369276482464187
 30
0.0
  0
INSERT
  5
152
100
AcDbEntity
  8
0
 62
256
370
-1
 48
1.0
  6
BYLAYER
100
AcDbBlockReference
  2
Switch
 10
235.9752800412406941
 20
78.3688613510770296
 30
0.0
  0
INSERT
  5
153
100
AcDbEntity
  8
0
 62
256
370
-1
 48
1.0
  6
BYLAYER
100
AcDbBlockReference
  2
Switch
 10
216.9251159708678074
 20
78.369541617367247
 30
0.0
  0
INSERT
  5
154
100
AcDbEntity
  8
0
 62
256
370
-1
 48
1.0
  6
BYLAYER
100
AcDbBlockReference
  2
Switch
 10
197.8750300275808911
 20
78.3691630550051883
 30
0.0
  0
INSERT
  5
155
100
AcDbEntity
  8
0
 62
256
370
-1
 48
1.0
  6
BYLAYER
100
AcDbBlockReference
  2
Switch
 10
178.8255700175087952
 20
78.3691264842654789
 30
0.0
  0
INSERT
  5
156
100
AcDbEntity
  8
0
 62
256
370
-1
 48
1.0
  6
BYLAYER
100
AcDbBlockReference
  2
Switch
 10
159.7751100289986823
 20
78.3690899152401101
 30
0.0
  0
INSERT
  5
157
100
AcDbEntity
  8
0
 62
256
370
-1
 48
1.0
  6
BYLAYER
100
AcDbBlockReference
  2
Switch
 10
140.7252018999704433
 20
78.3691630571993016
 30
0.0
  0
INSERT
  5
158
100
AcDbEntity
  8
0
 62
256
370
-1
 48
1.0
  6
BYLAYER
100
AcDbBlockReference
  2
Switch
 10
121.6753659590824412
 20
78.3693130541017382
 30
0.0
  0
INSERT
  5
159
100
AcDbEntity
  8
0
 62
256
370
-1
 48
1.0
  6
BYLAYER
100
AcDbBlockReference
  2
Switch
 10
102.6256859588538646
 20
78.3689764824641912
 30
0.0
  0
INSERT
  5
15A
100
AcDbEntity
  8
0
 62
256
370
-1
 48
1.0
  6
BYLAYER
100
AcDbBlockReference
  2
Switch
 10
83.5751269000240313
 20
78.3690944858197582
 30
0.0
  0
INSERT
  5
15B
100
AcDbEntity
  8
0
 62
256
370
-1
 48
1.0
  6
BYLAYER
100
AcDbBlockReference
  2
Switch
 10
64.5247018905840548
 20
78.3691630567193585
 30
0.0
  0
INSERT
  5
15C
100
AcDbEntity
  8
0
 62
256
370
-1
 48
1.0
  6
BYLAYER
100
AcDbBlockReference
  2
Switch
 10
45.4755659590824521
 20
78.3693130551466908
 30
0.0
  0
INSERT
  5
15D
100
AcDbEntity
  8
0
 62
256
370
-1
 48
1.0
  6
BYLAYER
100
AcDbBlockReference
  2
Switch
 10
26.4254059586395655
 20
78.3690222008521289
 30
0.0
  0
INSERT
  5
15E
100
AcDbEntity
  8
0
 62
256
370
-1
 48
1.0
  6
BYLAYER
100
AcDbBlockReference
  2
Switch
 10
7.3754709588538958
 20
78.3704014824642172
 30
0.0
  0
ARC
  5
15F
100
AcDbEntity
  8
0
 62
256
370
-1
 48
1.0
  6
BYLAYER
100
AcDbCircle
 10
3.500893030606004
 20
38.2645874836728979
 30
0.0
 40
2.5004504817586839
100
AcDbArc
 50
270.0160483925577637
 51
89.9523300298377961
  0
ARC
  5
160
100
AcDbEntity
  8
0
 62
256
370
-1
 48
1.0
  6
BYLAYER
100
AcDbCircle
 10
281.8767437081232288
 20
38.2645871
 30
0.0
 40
2.5004504206029803
100
AcDbArc
 50
90.0332326281819206
 51
269.9667673718207084
  0
ARC
  5
161
100
AcDbEntity
  8
0
 62
256
370
-1
 48
1.0
  6
BYLAYER
100
AcDbCircle
 10
128.3890232017737105
 20
47.5646912423073758
 30
0.0
 40
2.3987458729104163
100
AcDbArc
 50
43.6634879355905028
 51
135.5621667380174244
  0
ARC
  5
162
100
AcDbEntity
  8
0
 62
256
370
-1
 48
1.0
  6
BYLAYER
100
AcDbCircle
 10
128.3895556893957348
 20
47.3573393943287968
 30
0.0
 40
2.3935023087001608
100
AcDbArc
 50
224.291427934367448
 51
316.4496846345223275
  0
CIRCLE
  5
163
100
AcDbEntity
  8
0
 62
256
370
-1
 48
1.0
  6
BYLAYER
100
AcDbCircle
 10
260.238293399999975
 20
66.863937100000058
 30
0.0
 40
2.5
  0
CIRCLE
  5
164
100
AcDbEntity
  8
0
 62
256
370
-1
 48
1.0
  6
BYLAYER
100
AcDbCircle
 10
25.3889933999999968
 20
66.8639371000000011
 30
0.0
 40
2.4997000000000114
  0
ARC
  5
165
100
AcDbEntity
  8
0
 62
256
370
-1
 48
1.0
  6
BYLAYER
100
AcDbCircle
 10
3.9999987139761153
 20
3.9999995792408765
 30
0.0
 40
4.0
100
AcDbArc
 50
179.9540556445263633
 51
270.0262799423966271
  0
ARC
  5
166
100
AcDbEntity
  8
0
 62
256
370
-1
 48
1.0
  6
BYLAYER
100
AcDbCircle
 10
4.0013776799896199
 20
90.9288371259601291
 30
0.0
 40
4.0
100
AcDbArc
 50
89.9934722916731573
 51
180.0229186842646811
  0
ARC
  5
167
100
AcDbEntity
  8
0
 62
256
370
-1
 48
1.0
  6
BYLAYER
100
AcDbCircle
 10
281.3762934050000126
 20
90.9274371000000059
 30
0.0
 40
4.0
100
AcDbArc
 50
359.9971352110327416
 51
90.0000000716263031
  0
ARC
  5
168
100
AcDbEntity
  8
0
 62
256
370
-1
 48
1.0
  6
BYLAYER
100
AcDbCircle
 10
281.3762934249872956
 20
4.0
 30
0.0
 40
4.0
100
AcDbArc
 50
269.9999996420834805
 51
0.0064042357413785
  0
LINE
  5
169
100
AcDbEntity
  8
0
 62
256
370
-1
 48
1.0
  6
BYLAYER
100
AcDbLine
 10
281.8752934000000892
 20
35.7641371000000063
 30
0.0
 11
285.3762933999999518
 21
35.7641370999999992
 31
0.0
  0
LINE
  5
16A
100
AcDbEntity
  8
0
 62
256
370
-1
 48
1.0
  6
BYLAYER
100
AcDbLine
 10
285.3762933999999518
 20
35.7641370999999992
 30
0.0
 11
285.3762934000000087
 21
4.0004470999996329
 31
0.0
  0
LINE
  5
16B
100
AcDbEntity
  8
0
 62
256
370
-1
 48
1.0
  6
BYLAYER
100
AcDbLine
 10
281.3762934249872956
 20
0.0
 30
0.0
 11
4.0018334000000095
 21
-0.0
 31
0.0
  0
LINE
  5
16C
100
AcDbEntity
  8
0
 62
256
370
-1
 48
1.0
  6
BYLAYER
100
AcDbLine
 10
0.0
 20
3.9967920584811449
 30
0.0
 11
-0.0
 21
35.7641370999999992
 31
0.0
  0
LINE
  5
16D
100
AcDbEntity
  8
0
 62
256
370
-1
 48
1.0
  6
BYLAYER
100
AcDbLine
 10
-0.0
 20
35.7641370999999992
 30
0.0
 11
3.5015934000000297
 21
35.7641370999999992
 31
0.0
  0
LINE
  5
16E
100
AcDbEntity
  8
0
 62
256
370
-1
 48
1.0
  6
BYLAYER
100
AcDbLine
 10
3.502973400000029
 20
40.7650371000000149
 30
0.0
 11
-0.0
 21
40.7650371000000007
 31
0.0
  0
LINE
  5
16F
100
AcDbEntity
  8
0
 62
256
370
-1
 48
1.0
  6
BYLAYER
100
AcDbLine
 10
-0.0
 20
40.7650371000000007
 30
0.0
 11
0.0013780000000168
 21
90.9272371000000135
 31
0.0
  0
LINE
  5
170
100
AcDbEntity
  8
0
 62
256
370
-1
 48
1.0
  6
BYLAYER
100
AcDbLine
 10
4.0018334000002866
 20
94.9288371000000382
 30
0.0
 11
281.3762933999996676
 21
94.9274371000000059
 31
0.0
  0
LINE
  5
171
100
AcDbEntity
  8
0
 62
256
370
-1
 48
1.0
  6
BYLAYER
100
AcDbLine
 10
285.3762934000000087
 20
90.9272371000005393
 30
0.0
 11
285.3762934000000087
 21
40.7650371000000007
 31
0.0
  0
LINE
  5
172
100
AcDbEntity
  8
0
 62
256
370
-1
 48
1.0
  6
BYLAYER
100
AcDbLine
 10
285.3762934000000087
 20
40.7650371000000007
 30
0.0
 11
281.8752934000000892
 21
40.7650371000000007
 31
0.0
  0
LINE
  5
173
100
AcDbEntity
  8
0
 62
256
370
-1
 48
1.0
  6
BYLAYER
100
AcDbLine
 10
4.7198333999999988
 20
54.4643371000000016
 30
0.0
 11
23.4830934000000013
 21
54.464137099999995
 31
0.0
  0
LINE
  5
174
100
AcDbEntity
  8
0
 62
256
370
-1
 48
1.0
  6
BYLAYER
100
AcDbLine
 10
23.4830934000000013
 20
54.464137099999995
 30
0.0
 11
23.4830934000000013
 21
53.8662371000000064
 31
0.0
  0
LINE
  5
175
100
AcDbEntity
  8
0
 62
256
370
-1
 48
1.0
  6
BYLAYER
100
AcDbLine
 10
23.4830934000000013
 20
53.8662371000000064
 30
0.0
 11
24.2823934000000179
 21
53.8662370999999922
 31
0.0
  0
LINE
  5
176
100
AcDbEntity
  8
0
 62
256
370
-1
 48
1.0
  6
BYLAYER
100
AcDbLine
 10
24.2823934000000179
 20
53.8662370999999922
 30
0.0
 11
24.2823934000000179
 21
41.0642370999999997
 31
0.0
  0
LINE
  5
177
100
AcDbEntity
  8
0
 62
256
370
-1
 48
1.0
  6
BYLAYER
100
AcDbLine
 10
24.2823934000000179
 20
41.0642370999999997
 30
0.0
 11
23.4830934000000013
 21
41.0642371000000068
 31
0.0
  0
LINE
  5
178
100
AcDbEntity
  8
0
 62
256
370
-1
 48
1.0
  6
BYLAYER
100
AcDbLine
 10
23.4830934000000013
 20
41.0642371000000068
 30
0.0
 11
23.4830934000000013
 21
40.464837100000004
 31
0.0
  0
LINE
  5
179
100
AcDbEntity
  8
0
 62
256
370
-1
 48
1.0
  6
BYLAYER
100
AcDbLine
 10
23.4830934000000013
 20
40.464837100000004
 30
0.0
 11
4.7198333999999988
 21
40.4650371000000035
 31
0.0
  0
LINE
  5
17A
100
AcDbEntity
  8
0
 62
256
370
-1
 48
1.0
  6
BYLAYER
100
AcDbLine
 10
4.7198333999999988
 20
40.4650371000000035
 30
0.0
 11
4.7198333999999988
 21
41.0644371000000064
 31
0.0
  0
LINE
  5
17B
100
AcDbEntity
  8
0
 62
256
370
-1
 48
1.0
  6
BYLAYER
100
AcDbLine
 10
4.7198333999999988
 20
41.0644371000000064
 30
0.0
 11
3.9189334000000149
 21
41.0644370999999992
 31
0.0
  0
LINE
  5
17C
100
AcDbEntity
  8
0
 62
256
370
-1
 48
1.0
  6
BYLAYER
100
AcDbLine
 10
3.9189334000000149
 20
41.0644370999999992
 30
0.0
 11
3.9189334000000149
 21
53.8664370999999988
 31
0.0
  0
LINE
  5
17D
100
AcDbEntity
  8
0
 62
256
370
-1
 48
1.0
  6
BYLAYER
100
AcDbLine
 10
3.9189334000000149
 20
53.8664370999999988
 30
0.0
 11
4.7198333999999988
 21
53.866437100000006
 31
0.0
  0
LINE
  5
17E
100
AcDbEntity
  8
0
 62
256
370
-1
 48
1.0
  6
BYLAYER
100
AcDbLine
 10
4.7198333999999988
 20
53.866437100000006
 30
0.0
 11
4.719833399999998
 21
54.4643370999999945
 31
0.0
  0
LINE
  5
17F
100
AcDbEntity
  8
0
 62
256
370
-1
 48
1.0
  6
BYLAYER
100
AcDbLine
 10
126.6762933999987126
 20
49.2441370999987029
 30
0.0
 11
126.6762934000000058
 21
53.8662370999999993
 31
0.0
  0
LINE
  5
180
100
AcDbEntity
  8
0
 62
256
370
-1
 48
1.0
  6
BYLAYER
100
AcDbLine
 10
126.6762934000000058
 20
53.8662370999999993
 30
0.0
 11
125.8772934000000134
 21
53.8662370999999993
 31
0.0
  0
LINE
  5
181
100
AcDbEntity
  8
0
 62
256
370
-1
 48
1.0
  6
BYLAYER
100
AcDbLine
 10
125.8772934000000134
 20
53.8662370999999993
 30
0.0
 11
125.8771334000000053
 21
54.4643371000000087
 31
0.0
  0
LINE
  5
182
100
AcDbEntity
  8
0
 62
256
370
-1
 48
1.0
  6
BYLAYER
100
AcDbLine
 10
125.8771334000000053
 20
54.4643371000000087
 30
0.0
 11
111.8761334000000005
 21
54.464137099999995
 31
0.0
  0
LINE
  5
183
100
AcDbEntity
  8
0
 62
256
370
-1
 48
1.0
  6
BYLAYER
100
AcDbLine
 10
111.8761334000000005
 20
54.464137099999995
 30
0.0
 11
111.8761334000000147
 21
53.8664370999999988
 31
0.0
  0
LINE
  5
184
100
AcDbEntity
  8
0
 62
256
370
-1
 48
1.0
  6
BYLAYER
100
AcDbLine
 10
111.8761334000000147
 20
53.8664370999999988
 30
0.0
 11
111.075133400000027
 21
53.8664370999999988
 31
0.0
  0
LINE
  5
185
100
AcDbEntity
  8
0
 62
256
370
-1
 48
1.0
  6
BYLAYER
100
AcDbLine
 10
111.075133400000027
 20
53.8664370999999988
 30
0.0
 11
111.0752934000000209
 21
41.0642370999999997
 31
0.0
  0
LINE
  5
186
100
AcDbEntity
  8
0
 62
256
370
-1
 48
1.0
  6
BYLAYER
100
AcDbLine
 10
111.0752934000000209
 20
41.0642370999999997
 30
0.0
 11
111.8761334000000147
 21
41.0644370999999992
 31
0.0
  0
LINE
  5
187
100
AcDbEntity
  8
0
 62
256
370
-1
 48
1.0
  6
BYLAYER
100
AcDbLine
 10
111.8761334000000147
 20
41.0644370999999992
 30
0.0
 11
111.8761334000000289
 21
40.4650371000000106
 31
0.0
  0
LINE
  5
188
100
AcDbEntity
  8
0
 62
256
370
-1
 48
1.0
  6
BYLAYER
100
AcDbLine
 10
111.8761334000000289
 20
40.4650371000000106
 30
0.0
 11
125.8772934000000134
 21
40.4648371000000111
 31
0.0
  0
LINE
  5
189
100
AcDbEntity
  8
0
 62
256
370
-1
 48
1.0
  6
BYLAYER
100
AcDbLine
 10
125.8772934000000134
 20
40.4648371000000111
 30
0.0
 11
125.8772934000000276
 21
41.0642371000000068
 31
0.0
  0
LINE
  5
18A
100
AcDbEntity
  8
0
 62
256
370
-1
 48
1.0
  6
BYLAYER
100
AcDbLine
 10
125.8772934000000276
 20
41.0642371000000068
 30
0.0
 11
126.6761334000000403
 21
41.0644371000000064
 31
0.0
  0
LINE
  5
18B
100
AcDbEntity
  8
0
 62
256
370
-1
 48
1.0
  6
BYLAYER
100
AcDbLine
 10
126.6761334000000403
 20
41.0644371000000064
 30
0.0
 11
126.67629340000002
 21
45.6859371000000252
 31
0.0
  0
LINE
  5
18C
100
AcDbEntity
  8
0
 62
256
370
-1
 48
1.0
  6
BYLAYER
100
AcDbLine
 10
130.1242933999999991
 20
45.7082370999999625
 30
0.0
 11
130.1242933999999991
 21
41.0642370999999997
 31
0.0
  0
LINE
  5
18D
100
AcDbEntity
  8
0
 62
256
370
-1
 48
1.0
  6
BYLAYER
100
AcDbLine
 10
130.1242933999999991
 20
41.0642370999999997
 30
0.0
 11
130.92629340000002
 21
41.0642370999999997
 31
0.0
  0
LINE
  5
18E
100
AcDbEntity
  8
0
 62
256
370
-1
 48
1.0
  6
BYLAYER
100
AcDbLine
 10
130.92629340000002
 20
41.0642370999999997
 30
0.0
 11
130.92629340000002
 21
40.4650371000000035
 31
0.0
  0
LINE
  5
18F
100
AcDbEntity
  8
0
 62
256
370
-1
 48
1.0
  6
BYLAYER
100
AcDbLine
 10
130.92629340000002
 20
40.4650371000000035
 30
0.0
 11
144.927133399999974
 21
40.4650370999999964
 31
0.0
  0
LINE
  5
190
100
AcDbEntity
  8
0
 62
256
370
-1
 48
1.0
  6
BYLAYER
100
AcDbLine
 10
144.927133399999974
 20
40.4650370999999964
 30
0.0
 11
144.927133399999974
 21
41.0642370999999997
 31
0.0
  0
LINE
  5
191
100
AcDbEntity
  8
0
 62
256
370
-1
 48
1.0
  6
BYLAYER
100
AcDbLine
 10
144.927133399999974
 20
41.0642370999999997
 30
0.0
 11
145.726293400000003
 21
41.0642370999999997
 31
0.0
  0
LINE
  5
192
100
AcDbEntity
  8
0
 62
256
370
-1
 48
1.0
  6
BYLAYER
100
AcDbLine
 10
145.726293400000003
 20
41.0642370999999997
 30
0.0
 11
145.7261334000000375
 21
53.866437100000006
 31
0.0
  0
LINE
  5
193
100
AcDbEntity
  8
0
 62
256
370
-1
 48
1.0
  6
BYLAYER
100
AcDbLine
 10
145.7261334000000375
 20
53.866437100000006
 30
0.0
 11
144.927133399999974
 21
53.866437100000006
 31
0.0
  0
LINE
  5
194
100
AcDbEntity
  8
0
 62
256
370
-1
 48
1.0
  6
BYLAYER
100
AcDbLine
 10
144.927133399999974
 20
53.866437100000006
 30
0.0
 11
144.9252933999999868
 21
54.464137099999995
 31
0.0
  0
LINE
  5
195
100
AcDbEntity
  8
0
 62
256
370
-1
 48
1.0
  6
BYLAYER
100
AcDbLine
 10
144.9252933999999868
 20
54.464137099999995
 30
0.0
 11
130.92629340000002
 21
54.464137099999995
 31
0.0
  0
LINE
  5
196
100
AcDbEntity
  8
0
 62
256
370
-1
 48
1.0
  6
BYLAYER
100
AcDbLine
 10
130.92629340000002
 20
54.464137099999995
 30
0.0
 11
130.9263521314482546
 21
53.8662370999999922
 31
0.0
  0
LINE
  5
197
100
AcDbEntity
  8
0
 62
256
370
-1
 48
1.0
  6
BYLAYER
100
AcDbLine
 10
130.9263521314482546
 20
53.8662370999999922
 30
0.0
 11
130.1242933999999707
 21
53.8662370999999922
 31
0.0
  0
LINE
  5
198
100
AcDbEntity
  8
0
 62
256
370
-1
 48
1.0
  6
BYLAYER
100
AcDbLine
 10
130.1271334000000479
 20
53.8664370999999988
 30
0.0
 11
130.1242933999999991
 21
49.2208371000000042
 31
0.0
  0
LINE
  5
199
100
AcDbEntity
  8
0
 62
256
370
-1
 48
1.0
  6
BYLAYER
100
AcDbLine
 10
250.5811333999999988
 20
53.9161371000000003
 30
0.0
 11
250.5811333999999988
 21
52.9954370999999966
 31
0.0
  0
LINE
  5
19A
100
AcDbEntity
  8
0
 62
256
370
-1
 48
1.0
  6
BYLAYER
100
AcDbLine
 10
250.5811333999999988
 20
52.9954370999999966
 30
0.0
 11
248.8572933999999748
 21
52.9951370999999938
 31
0.0
  0
LINE
  5
19B
100
AcDbEntity
  8
0
 62
256
370
-1
 48
1.0
  6
BYLAYER
100
AcDbLine
 10
248.8572933999999748
 20
52.9951370999999938
 30
0.0
 11
248.8571334000000377
 21
49.7653371000000035
 31
0.0
  0
LINE
  5
19C
100
AcDbEntity
  8
0
 62
256
370
-1
 48
1.0
  6
BYLAYER
100
AcDbLine
 10
248.8571334000000377
 20
49.7653371000000035
 30
0.0
 11
248.0332934000000478
 21
49.7651371000000111
 31
0.0
  0
LINE
  5
19D
100
AcDbEntity
  8
0
 62
256
370
-1
 48
1.0
  6
BYLAYER
100
AcDbLine
 10
248.0332934000000478
 20
49.7651371000000111
 30
0.0
 11
248.0321333999999922
 21
46.9653370999999922
 31
0.0
  0
LINE
  5
19E
100
AcDbEntity
  8
0
 62
256
370
-1
 48
1.0
  6
BYLAYER
100
AcDbLine
 10
248.0321333999999922
 20
46.9653370999999922
 30
0.0
 11
248.8571334000000661
 21
46.964837100000004
 31
0.0
  0
LINE
  5
19F
100
AcDbEntity
  8
0
 62
256
370
-1
 48
1.0
  6
BYLAYER
100
AcDbLine
 10
248.8571334000000661
 20
46.964837100000004
 30
0.0
 11
248.8572933999999748
 21
40.6965371000000005
 31
0.0
  0
LINE
  5
1A0
100
AcDbEntity
  8
0
 62
256
370
-1
 48
1.0
  6
BYLAYER
100
AcDbLine
 10
248.8572933999999748
 20
40.6965371000000005
 30
0.0
 11
250.5811333999999988
 21
40.6965371000000005
 31
0.0
  0
LINE
  5
1A1
100
AcDbEntity
  8
0
 62
256
370
-1
 48
1.0
  6
BYLAYER
100
AcDbLine
 10
250.5811333999999988
 20
40.6965371000000005
 30
0.0
 11
250.581293400000078
 21
39.7154371000000026
 31
0.0
  0
LINE
  5
1A2
100
AcDbEntity
  8
0
 62
256
370
-1
 48
1.0
  6
BYLAYER
100
AcDbLine
 10
250.581293400000078
 20
39.7154371000000026
 30
0.0
 11
253.8802934000000278
 21
39.7154371000000026
 31
0.0
  0
LINE
  5
1A3
100
AcDbEntity
  8
0
 62
256
370
-1
 48
1.0
  6
BYLAYER
100
AcDbLine
 10
253.8802934000000278
 20
39.7154371000000026
 30
0.0
 11
253.8802933999999993
 21
40.6963371000000009
 31
0.0
  0
LINE
  5
1A4
100
AcDbEntity
  8
0
 62
256
370
-1
 48
1.0
  6
BYLAYER
100
AcDbLine
 10
253.8802933999999993
 20
40.6963371000000009
 30
0.0
 11
255.6062934000000553
 21
40.6963371000000009
 31
0.0
  0
LINE
  5
1A5
100
AcDbEntity
  8
0
 62
256
370
-1
 48
1.0
  6
BYLAYER
100
AcDbLine
 10
255.6062934000000553
 20
40.6963371000000009
 30
0.0
 11
255.6061334000000045
 21
45.1655371000000017
 31
0.0
  0
LINE
  5
1A6
100
AcDbEntity
  8
0
 62
256
370
-1
 48
1.0
  6
BYLAYER
100
AcDbLine
 10
255.6061334000000045
 20
45.1655371000000017
 30
0.0
 11
256.3311333999999988
 21
45.1655371000000017
 31
0.0
  0
LINE
  5
1A7
100
AcDbEntity
  8
0
 62
256
370
-1
 48
1.0
  6
BYLAYER
100
AcDbLine
 10
256.3311333999999988
 20
45.1655371000000017
 30
0.0
 11
256.3312934000000496
 21
41.0644371000000064
 31
0.0
  0
LINE
  5
1A8
100
AcDbEntity
  8
0
 62
256
370
-1
 48
1.0
  6
BYLAYER
100
AcDbLine
 10
256.3312934000000496
 20
41.0644371000000064
 30
0.0
 11
257.1312934000000041
 21
41.0642370999999997
 31
0.0
  0
LINE
  5
1A9
100
AcDbEntity
  8
0
 62
256
370
-1
 48
1.0
  6
BYLAYER
100
AcDbLine
 10
257.1312934000000041
 20
41.0642370999999997
 30
0.0
 11
257.131133400000067
 21
40.4650371000000035
 31
0.0
  0
LINE
  5
1AA
100
AcDbEntity
  8
0
 62
256
370
-1
 48
1.0
  6
BYLAYER
100
AcDbLine
 10
257.131133400000067
 20
40.4650371000000035
 30
0.0
 11
271.131133400000067
 21
40.4650371000000035
 31
0.0
  0
LINE
  5
1AB
100
AcDbEntity
  8
0
 62
256
370
-1
 48
1.0
  6
BYLAYER
100
AcDbLine
 10
271.131133400000067
 20
40.4650371000000035
 30
0.0
 11
271.1312934000000041
 21
41.0642370999999997
 31
0.0
  0
LINE
  5
1AC
100
AcDbEntity
  8
0
 62
256
370
-1
 48
1.0
  6
BYLAYER
100
AcDbLine
 10
271.1312934000000041
 20
41.0642370999999997
 30
0.0
 11
271.9311334000000215
 21
41.0644371000000064
 31
0.0
  0
LINE
  5
1AD
100
AcDbEntity
  8
0
 62
256
370
-1
 48
1.0
  6
BYLAYER
100
AcDbLine
 10
271.9311334000000215
 20
41.0644371000000064
 30
0.0
 11
271.9311334000000215
 21
45.1655371000000088
 31
0.0
  0
LINE
  5
1AE
100
AcDbEntity
  8
0
 62
256
370
-1
 48
1.0
  6
BYLAYER
100
AcDbLine
 10
271.9311334000000215
 20
45.1655371000000088
 30
0.0
 11
272.6551334000000679
 21
45.1655371000000017
 31
0.0
  0
LINE
  5
1AF
100
AcDbEntity
  8
0
 62
256
370
-1
 48
1.0
  6
BYLAYER
100
AcDbLine
 10
272.6551334000000679
 20
45.1655371000000017
 30
0.0
 11
272.6551334000000679
 21
40.6965371000000005
 31
0.0
  0
LINE
  5
1B0
100
AcDbEntity
  8
0
 62
256
370
-1
 48
1.0
  6
BYLAYER
100
AcDbLine
 10
272.6551334000000679
 20
40.6965371000000005
 30
0.0
 11
274.381133400000067
 21
40.6963370999999938
 31
0.0
  0
LINE
  5
1B1
100
AcDbEntity
  8
0
 62
256
370
-1
 48
1.0
  6
BYLAYER
100
AcDbLine
 10
274.381133400000067
 20
40.6963370999999938
 30
0.0
 11
274.3812934000000041
 21
39.7154370999999955
 31
0.0
  0
LINE
  5
1B2
100
AcDbEntity
  8
0
 62
256
370
-1
 48
1.0
  6
BYLAYER
100
AcDbLine
 10
274.3812934000000041
 20
39.7154370999999955
 30
0.0
 11
277.6811333999999647
 21
39.7154370999999955
 31
0.0
  0
LINE
  5
1B3
100
AcDbEntity
  8
0
 62
256
370
-1
 48
1.0
  6
BYLAYER
100
AcDbLine
 10
277.6811333999999647
 20
39.7154370999999955
 30
0.0
 11
277.6812933999999586
 21
40.6963371000000009
 31
0.0
  0
LINE
  5
1B4
100
AcDbEntity
  8
0
 62
256
370
-1
 48
1.0
  6
BYLAYER
100
AcDbLine
 10
277.6812933999999586
 20
40.6963371000000009
 30
0.0
 11
279.4071334000000206
 21
40.6965371000000005
 31
0.0
  0
LINE
  5
1B5
100
AcDbEntity
  8
0
 62
256
370
-1
 48
1.0
  6
BYLAYER
100
AcDbLine
 10
279.4071334000000206
 20
40.6965371000000005
 30
0.0
 11
279.4071334000000206
 21
46.9653371000000064
 31
0.0
  0
LINE
  5
1B6
100
AcDbEntity
  8
0
 62
256
370
-1
 48
1.0
  6
BYLAYER
100
AcDbLine
 10
279.4071334000000206
 20
46.9653371000000064
 30
0.0
 11
280.2311333999999761
 21
46.9653370999999993
 31
0.0
  0
LINE
  5
1B7
100
AcDbEntity
  8
0
 62
256
370
-1
 48
1.0
  6
BYLAYER
100
AcDbLine
 10
280.2311333999999761
 20
46.9653370999999993
 30
0.0
 11
280.2311333999999761
 21
49.7653371000000107
 31
0.0
  0
LINE
  5
1B8
100
AcDbEntity
  8
0
 62
256
370
-1
 48
1.0
  6
BYLAYER
100
AcDbLine
 10
280.2311333999999761
 20
49.7653371000000107
 30
0.0
 11
279.4072933999999577
 21
49.7653371000000107
 31
0.0
  0
LINE
  5
1B9
100
AcDbEntity
  8
0
 62
256
370
-1
 48
1.0
  6
BYLAYER
100
AcDbLine
 10
279.4072933999999577
 20
49.7653371000000107
 30
0.0
 11
279.4071334000000206
 21
52.9954370999999966
 31
0.0
  0
LINE
  5
1BA
100
AcDbEntity
  8
0
 62
256
370
-1
 48
1.0
  6
BYLAYER
100
AcDbLine
 10
279.4071334000000206
 20
52.9954370999999966
 30
0.0
 11
277.6811334000000215
 21
52.9954370999999966
 31
0.0
  0
LINE
  5
1BB
100
AcDbEntity
  8
0
 62
256
370
-1
 48
1.0
  6
BYLAYER
100
AcDbLine
 10
277.6811334000000215
 20
52.9954370999999966
 30
0.0
 11
277.6811334000000215
 21
53.9161370999999932
 31
0.0
  0
LINE
  5
1BC
100
AcDbEntity
  8
0
 62
256
370
-1
 48
1.0
  6
BYLAYER
100
AcDbLine
 10
277.6811334000000215
 20
53.9161370999999932
 30
0.0
 11
274.381133400000067
 21
53.9161370999999932
 31
0.0
  0
LINE
  5
1BD
100
AcDbEntity
  8
0
 62
256
370
-1
 48
1.0
  6
BYLAYER
100
AcDbLine
 10
274.381133400000067
 20
53.9161370999999932
 30
0.0
 11
274.381133400000067
 21
52.9954370999999966
 31
0.0
  0
LINE
  5
1BE
100
AcDbEntity
  8
0
 62
256
370
-1
 48
1.0
  6
BYLAYER
100
AcDbLine
 10
274.381133400000067
 20
52.9954370999999966
 30
0.0
 11
272.6551334000000679
 21
52.9954370999999966
 31
0.0
  0
LINE
  5
1BF
100
AcDbEntity
  8
0
 62
256
370
-1
 48
1.0
  6
BYLAYER
100
AcDbLine
 10
272.6551334000000679
 20
52.9954370999999966
 30
0.0
 11
272.6551334000001248
 21
49.7653371000000107
 31
0.0
  0
LINE
  5
1C0
100
AcDbEntity
  8
0
 62
256
370
-1
 48
1.0
  6
BYLAYER
100
AcDbLine
 10
272.6551334000001248
 20
49.7653371000000107
 30
0.0
 11
271.9312933999999586
 21
49.7653371000000107
 31
0.0
  0
LINE
  5
1C1
100
AcDbEntity
  8
0
 62
256
370
-1
 48
1.0
  6
BYLAYER
100
AcDbLine
 10
271.9312933999999586
 20
49.7653371000000107
 30
0.0
 11
271.9311334000000215
 21
53.8664370999999988
 31
0.0
  0
LINE
  5
1C2
100
AcDbEntity
  8
0
 62
256
370
-1
 48
1.0
  6
BYLAYER
100
AcDbLine
 10
271.9311334000000215
 20
53.8664370999999988
 30
0.0
 11
271.1312934000000041
 21
53.8664370999999988
 31
0.0
  0
LINE
  5
1C3
100
AcDbEntity
  8
0
 62
256
370
-1
 48
1.0
  6
BYLAYER
100
AcDbLine
 10
271.1312934000000041
 20
53.8664370999999988
 30
0.0
 11
271.131133400000067
 21
54.4643371000000016
 31
0.0
  0
LINE
  5
1C4
100
AcDbEntity
  8
0
 62
256
370
-1
 48
1.0
  6
BYLAYER
100
AcDbLine
 10
271.131133400000067
 20
54.4643371000000016
 30
0.0
 11
257.131133400000067
 21
54.4643371000000016
 31
0.0
  0
LINE
  5
1C5
100
AcDbEntity
  8
0
 62
256
370
-1
 48
1.0
  6
BYLAYER
100
AcDbLine
 10
257.131133400000067
 20
54.4643371000000016
 30
0.0
 11
257.131133400000067
 21
53.866437100000006
 31
0.0
  0
LINE
  5
1C6
100
AcDbEntity
  8
0
 62
256
370
-1
 48
1.0
  6
BYLAYER
100
AcDbLine
 10
257.131133400000067
 20
53.866437100000006
 30
0.0
 11
256.3311333999999988
 21
53.8664370999999988
 31
0.0
  0
LINE
  5
1C7
100
AcDbEntity
  8
0
 62
256
370
-1
 48
1.0
  6
BYLAYER
100
AcDbLine
 10
256.3311333999999988
 20
53.8664370999999988
 30
0.0
 11
256.3312934000000496
 21
49.765137100000004
 31
0.0
  0
LINE
  5
1C8
100
AcDbEntity
  8
0
 62
256
370
-1
 48
1.0
  6
BYLAYER
100
AcDbLine
 10
256.3312934000000496
 20
49.765137100000004
 30
0.0
 11
255.6062933999999984
 21
49.7653371000000107
 31
0.0
  0
LINE
  5
1C9
100
AcDbEntity
  8
0
 62
256
370
-1
 48
1.0
  6
BYLAYER
100
AcDbLine
 10
255.6062933999999984
 20
49.7653371000000107
 30
0.0
 11
255.6061333999999761
 21
52.9954371000000108
 31
0.0
  0
LINE
  5
1CA
100
AcDbEntity
  8
0
 62
256
370
-1
 48
1.0
  6
BYLAYER
100
AcDbLine
 10
255.6061333999999761
 20
52.9954371000000108
 30
0.0
 11
253.8811334000000386
 21
52.9954371000000037
 31
0.0
  0
LINE
  5
1CB
100
AcDbEntity
  8
0
 62
256
370
-1
 48
1.0
  6
BYLAYER
100
AcDbLine
 10
253.8811334000000386
 20
52.9954371000000037
 30
0.0
 11
253.881133400000067
 21
53.9161371000000003
 31
0.0
  0
LINE
  5
1CC
100
AcDbEntity
  8
0
 62
256
370
-1
 48
1.0
  6
BYLAYER
100
AcDbLine
 10
253.881133400000067
 20
53.9161371000000003
 30
0.0
 11
250.5811333999999988
 21
53.9161371000000003
 31
0.0
  0
LINE
  5
1CD
100
AcDbEntity
  8
standard-shift-row
 62
256
370
-1
 48
1.0
  6
BYLAYER
100
AcDbLine
 10
7.6951934000000017
 20
34.8661371000000031
 30
0.0
 11
10.9942333999999988
 21
34.8661371000000031
 31
0.0
  0
LINE
  5
1CE
100
AcDbEntity
  8
standard-shift-row
 62
256
370
-1
 48
1.0
  6
BYLAYER
100
AcDbLine
 10
10.9942333999999988
 20
34.8661371000000031
 30
0.0
 11
10.9942333999999988
 21
33.9454371000000066
 31
0.0
  0
LINE
  5
1CF
100
AcDbEntity
  8
standard-shift-row
 62
256
370
-1
 48
1.0
  6
BYLAYER
100
AcDbLine
 10
10.9942333999999988
 20
33.9454371000000066
 30
0.0
 11
12.7195334000000031
 21
33.9454371000000066
 31
0.0
  0
LINE
  5
1D0
100
AcDbEntity
  8
standard-shift-row
 62
256
370
-1
 48
1.0
  6
BYLAYER
100
AcDbLine
 10
12.7195334000000031
 20
33.9454371000000066
 30
0.0
 11
12.7195334000000031
 21
30.7153370999999993
 31
0.0
  0
LINE
  5
1D1
100
AcDbEntity
  8
standard-shift-row
 62
256
370
-1
 48
1.0
  6
BYLAYER
100
AcDbLine
 10
12.7195334000000031
 20
30.7153370999999993
 30
0.0
 11
13.4443334000000032
 21
30.7153370999999993
 31
0.0
  0
LINE
  5
1D2
100
AcDbEntity
  8
standard-shift-row
 62
256
370
-1
 48
1.0
  6
BYLAYER
100
AcDbLine
 10
13.4443334000000032
 20
30.7153370999999993
 30
0.0
 11
13.4443334000000014
 21
34.8164371000000017
 31
0.0
  0
LINE
  5
1D3
100
AcDbEntity
  8
standard-shift-row
 62
256
370
-1
 48
1.0
  6
BYLAYER
100
AcDbLine
 10
13.4443334000000014
 20
34.8164371000000017
 30
0.0
 11
14.2436333999999984
 21
34.8164371000000017
 31
0.0
  0
LINE
  5
1D4
100
AcDbEntity
  8
standard-shift-row
 62
256
370
-1
 48
1.0
  6
BYLAYER
100
AcDbLine
 10
14.2436333999999984
 20
34.8164371000000017
 30
0.0
 11
14.243633400000002
 21
35.4157371000000012
 31
0.0
  0
LINE
  5
1D5
100
AcDbEntity
  8
standard-shift-row
 62
256
370
-1
 48
1.0
  6
BYLAYER
100
AcDbLine
 10
14.2436334000000038
 20
35.4157371000000012
 30
0.0
 11
28.2431333999999978
 21
35.4157371000000012
 31
0.0
  0
LINE
  5
1D6
100
AcDbEntity
  8
standard-shift-row
 62
256
370
-1
 48
1.0
  6
BYLAYER
100
AcDbLine
 10
28.2431333999999978
 20
35.4157371000000012
 30
0.0
 11
28.2431333999999943
 21
34.8164370999999946
 31
0.0
  0
LINE
  5
1D7
100
AcDbEntity
  8
standard-shift-row
 62
256
370
-1
 48
1.0
  6
BYLAYER
100
AcDbLine
 10
28.2431333999999943
 20
34.8164370999999946
 30
0.0
 11
29.043833400000004
 21
34.8164371000000017
 31
0.0
  0
LINE
  5
1D8
100
AcDbEntity
  8
standard-shift-row
 62
256
370
-1
 48
1.0
  6
BYLAYER
100
AcDbLine
 10
29.043833400000004
 20
34.8164371000000017
 30
0.0
 11
29.0438334000000076
 21
30.7153371000000028
 31
0.0
  0
LINE
  5
1D9
100
AcDbEntity
  8
standard-shift-row
 62
256
370
-1
 48
1.0
  6
BYLAYER
100
AcDbLine
 10
29.0438334000000076
 20
30.7153371000000028
 30
0.0
 11
29.7699333999999993
 21
30.7153370999999957
 31
0.0
  0
LINE
  5
1DA
100
AcDbEntity
  8
standard-shift-row
 62
256
370
-1
 48
1.0
  6
BYLAYER
100
AcDbLine
 10
29.7699333999999993
 20
30.7153370999999957
 30
0.0
 11
29.7699333999999993
 21
33.9454371000000066
 31
0.0
  0
LINE
  5
1DB
100
AcDbEntity
  8
standard-shift-row
 62
256
370
-1
 48
1.0
  6
BYLAYER
100
AcDbLine
 10
29.7699333999999993
 20
33.9454371000000066
 30
0.0
 11
31.493933399999996
 21
33.9454371000000066
 31
0.0
  0
LINE
  5
1DC
100
AcDbEntity
  8
standard-shift-row
 62
256
370
-1
 48
1.0
  6
BYLAYER
100
AcDbLine
 10
31.493933399999996
 20
33.9454371000000066
 30
0.0
 11
31.493933399999996
 21
34.8661371000000031
 31
0.0
  0
LINE
  5
1DD
100
AcDbEntity
  8
standard-shift-row
 62
256
370
-1
 48
1.0
  6
BYLAYER
100
AcDbLine
 10
31.493933399999996
 20
34.8661371000000031
 30
0.0
 11
34.7943333999999993
 21
34.8661371000000031
 31
0.0
  0
LINE
  5
1DE
100
AcDbEntity
  8
standard-shift-row
 62
256
370
-1
 48
1.0
  6
BYLAYER
100
AcDbLine
 10
34.7943333999999993
 20
34.8661371000000031
 30
0.0
 11
34.7943333999999993
 21
33.9454371000000066
 31
0.0
  0
LINE
  5
1DF
100
AcDbEntity
  8
standard-shift-row
 62
256
370
-1
 48
1.0
  6
BYLAYER
100
AcDbLine
 10
34.7943333999999993
 20
33.9454371000000066
 30
0.0
 11
36.5195334000000003
 21
33.9454371000000066
 31
0.0
  0
LINE
  5
1E0
100
AcDbEntity
  8
standard-shift-row
 62
256
370
-1
 48
1.0
  6
BYLAYER
100
AcDbLine
 10
36.5195334000000003
 20
33.9454371000000066
 30
0.0
 11
36.5195334000000003
 21
30.7153370999999993
 31
0.0
  0
LINE
  5
1E1
100
AcDbEntity
  8
standard-shift-row
 62
256
370
-1
 48
1.0
  6
BYLAYER
100
AcDbLine
 10
36.5195334000000003
 20
30.7153370999999993
 30
0.0
 11
37.3450333999999984
 21
30.7153371000000028
 31
0.0
  0
LINE
  5
1E2
100
AcDbEntity
  8
standard-shift-row
 62
256
370
-1
 48
1.0
  6
BYLAYER
100
AcDbLine
 10
37.3450333999999984
 20
30.7153371000000028
 30
0.0
 11
37.3450333999999984
 21
27.9164371000000138
 31
0.0
  0
LINE
  5
1E3
100
AcDbEntity
  8
standard-shift-row
 62
256
370
-1
 48
1.0
  6
BYLAYER
100
AcDbLine
 10
37.3450333999999984
 20
27.9164371000000138
 30
0.0
 11
36.5195334000000003
 21
27.9164371000000067
 31
0.0
  0
LINE
  5
1E4
100
AcDbEntity
  8
standard-shift-row
 62
256
370
-1
 48
1.0
  6
BYLAYER
100
AcDbLine
 10
36.5195334000000003
 20
27.9164371000000067
 30
0.0
 11
36.5195334000000003
 21
21.6465371000000069
 31
0.0
  0
LINE
  5
1E5
100
AcDbEntity
  8
standard-shift-row
 62
256
370
-1
 48
1.0
  6
BYLAYER
100
AcDbLine
 10
36.5195334000000003
 20
21.6465371000000069
 30
0.0
 11
34.7943333999999993
 21
21.6465371000000033
 31
0.0
  0
LINE
  5
1E6
100
AcDbEntity
  8
standard-shift-row
 62
256
370
-1
 48
1.0
  6
BYLAYER
100
AcDbLine
 10
34.7943333999999993
 20
21.6465371000000033
 30
0.0
 11
34.7943333999999993
 21
20.6654371000000054
 31
0.0
  0
LINE
  5
1E7
100
AcDbEntity
  8
standard-shift-row
 62
256
370
-1
 48
1.0
  6
BYLAYER
100
AcDbLine
 10
34.7943333999999993
 20
20.6654371000000054
 30
0.0
 11
31.4939333999999924
 21
20.6654371000000054
 31
0.0
  0
LINE
  5
1E8
100
AcDbEntity
  8
standard-shift-row
 62
256
370
-1
 48
1.0
  6
BYLAYER
100
AcDbLine
 10
31.4939333999999924
 20
20.6654371000000054
 30
0.0
 11
31.493933399999996
 21
21.6465371000000069
 31
0.0
  0
LINE
  5
1E9
100
AcDbEntity
  8
standard-shift-row
 62
256
370
-1
 48
1.0
  6
BYLAYER
100
AcDbLine
 10
31.493933399999996
 20
21.6465371000000069
 30
0.0
 11
29.7699334000000029
 21
21.6465371000000033
 31
0.0
  0
LINE
  5
1EA
100
AcDbEntity
  8
standard-shift-row
 62
256
370
-1
 48
1.0
  6
BYLAYER
100
AcDbLine
 10
29.7699334000000029
 20
21.6465371000000033
 30
0.0
 11
29.7699334000000029
 21
26.1155370999999974
 31
0.0
  0
LINE
  5
1EB
100
AcDbEntity
  8
standard-shift-row
 62
256
370
-1
 48
1.0
  6
BYLAYER
100
AcDbLine
 10
29.7699334000000029
 20
26.1155370999999974
 30
0.0
 11
29.043833400000004
 21
26.1155370999999974
 31
0.0
  0
LINE
  5
1EC
100
AcDbEntity
  8
standard-shift-row
 62
256
370
-1
 48
1.0
  6
BYLAYER
100
AcDbLine
 10
29.043833400000004
 20
26.1155370999999974
 30
0.0
 11
29.043833400000004
 21
22.0144371000000127
 31
0.0
  0
LINE
  5
1ED
100
AcDbEntity
  8
standard-shift-row
 62
256
370
-1
 48
1.0
  6
BYLAYER
100
AcDbLine
 10
29.043833400000004
 20
22.0144371000000127
 30
0.0
 11
28.2431333999999978
 21
22.0144371000000127
 31
0.0
  0
LINE
  5
1EE
100
AcDbEntity
  8
standard-shift-row
 62
256
370
-1
 48
1.0
  6
BYLAYER
100
AcDbLine
 10
28.2431333999999978
 20
22.0144371000000127
 30
0.0
 11
28.2431333999999978
 21
21.4164371000000138
 31
0.0
  0
LINE
  5
1EF
100
AcDbEntity
  8
standard-shift-row
 62
256
370
-1
 48
1.0
  6
BYLAYER
100
AcDbLine
 10
28.2431333999999978
 20
21.4164371000000138
 30
0.0
 11
14.2436334000000002
 21
21.4164371000000138
 31
0.0
  0
LINE
  5
1F0
100
AcDbEntity
  8
standard-shift-row
 62
256
370
-1
 48
1.0
  6
BYLAYER
100
AcDbLine
 10
14.2436334000000002
 20
21.4164371000000138
 30
0.0
 11
14.2436334000000002
 21
22.0144371000000092
 31
0.0
  0
LINE
  5
1F1
100
AcDbEntity
  8
standard-shift-row
 62
256
370
-1
 48
1.0
  6
BYLAYER
100
AcDbLine
 10
14.2436334000000002
 20
22.0144371000000092
 30
0.0
 11
13.4443334000000014
 21
22.0144371000000056
 31
0.0
  0
LINE
  5
1F2
100
AcDbEntity
  8
standard-shift-row
 62
256
370
-1
 48
1.0
  6
BYLAYER
100
AcDbLine
 10
13.4443334000000014
 20
22.0144371000000056
 30
0.0
 11
13.4443334000000014
 21
26.1155371000000009
 31
0.0
  0
LINE
  5
1F3
100
AcDbEntity
  8
standard-shift-row
 62
256
370
-1
 48
1.0
  6
BYLAYER
100
AcDbLine
 10
13.4443334000000014
 20
26.1155371000000009
 30
0.0
 11
12.7195334000000031
 21
26.1155371000000009
 31
0.0
  0
LINE
  5
1F4
100
AcDbEntity
  8
standard-shift-row
 62
256
370
-1
 48
1.0
  6
BYLAYER
100
AcDbLine
 10
12.7195334000000031
 20
26.1155371000000009
 30
0.0
 11
12.7195334000000049
 21
21.6465371000000069
 31
0.0
  0
LINE
  5
1F5
100
AcDbEntity
  8
standard-shift-row
 62
256
370
-1
 48
1.0
  6
BYLAYER
100
AcDbLine
 10
12.7195334000000049
 20
21.6465371000000069
 30
0.0
 11
10.9942333999999988
 21
21.6465371000000033
 31
0.0
  0
LINE
  5
1F6
100
AcDbEntity
  8
standard-shift-row
 62
256
370
-1
 48
1.0
  6
BYLAYER
100
AcDbLine
 10
10.9942333999999988
 20
21.6465371000000033
 30
0.0
 11
10.994233399999997
 21
20.6654371000000054
 31
0.0
  0
LINE
  5
1F7
100
AcDbEntity
  8
standard-shift-row
 62
256
370
-1
 48
1.0
  6
BYLAYER
100
AcDbLine
 10
10.994233399999997
 20
20.6654371000000054
 30
0.0
 11
7.6951934000000008
 21
20.6654371000000054
 31
0.0
  0
LINE
  5
1F8
100
AcDbEntity
  8
standard-shift-row
 62
256
370
-1
 48
1.0
  6
BYLAYER
100
AcDbLine
 10
7.6951934000000008
 20
20.6654371000000054
 30
0.0
 11
7.6951934000000008
 21
21.6465371000000033
 31
0.0
  0
LINE
  5
1F9
100
AcDbEntity
  8
standard-shift-row
 62
256
370
-1
 48
1.0
  6
BYLAYER
100
AcDbLine
 10
7.6951934000000008
 20
21.6465371000000033
 30
0.0
 11
5.9699034000000006
 21
21.6465371000000033
 31
0.0
  0
LINE
  5
1FA
100
AcDbEntity
  8
standard-shift-row
 62
256
370
-1
 48
1.0
  6
BYLAYER
100
AcDbLine
 10
5.9699034000000006
 20
21.6465371000000033
 30
0.0
 11
5.9699034000000006
 21
27.9164371000000138
 31
0.0
  0
LINE
  5
1FB
100
AcDbEntity
  8
standard-shift-row
 62
256
370
-1
 48
1.0
  6
BYLAYER
100
AcDbLine
 10
5.9699034000000006
 20
27.9164371000000138
 30
0.0
 11
5.1444734000000025
 21
27.9164371000000102
 31
0.0
  0
LINE
  5
1FC
100
AcDbEntity
  8
standard-shift-row
 62
256
370
-1
 48
1.0
  6
BYLAYER
100
AcDbLine
 10
5.1444734000000025
 20
27.9164371000000102
 30
0.0
 11
5.1444734000000025
 21
30.7153370999999993
 31
0.0
  0
LINE
  5
1FD
100
AcDbEntity
  8
standard-shift-row
 62
256
370
-1
 48
1.0
  6
BYLAYER
100
AcDbLine
 10
5.1444734000000025
 20
30.7153370999999993
 30
0.0
 11
5.9699033999999997
 21
30.7153371000000028
 31
0.0
  0
LINE
  5
1FE
100
AcDbEntity
  8
standard-shift-row
 62
256
370
-1
 48
1.0
  6
BYLAYER
100
AcDbLine
 10
5.9699033999999997
 20
30.7153371000000028
 30
0.0
 11
5.9699033999999989
 21
33.9454371000000066
 31
0.0
  0
LINE
  5
1FF
100
AcDbEntity
  8
standard-shift-row
 62
256
370
-1
 48
1.0
  6
BYLAYER
100
AcDbLine
 10
5.9699033999999989
 20
33.9454371000000066
 30
0.0
 11
7.6951934000000008
 21
33.9454371000000066
 31
0.0
  0
LINE
  5
200
100
AcDbEntity
  8
standard-shift-row
 62
256
370
-1
 48
1.0
  6
BYLAYER
100
AcDbLine
 10
7.6951934000000008
 20
33.9454371000000066
 30
0.0
 11
7.6951934000000017
 21
34.8661371000000031
 31
0.0
  0
LINE
  5
201
100
AcDbEntity
  8
standard-shift-row
 62
256
370
-1
 48
1.0
  6
BYLAYER
100
AcDbLine
 10
269.0371334000001298
 20
35.4157371000000083
 30
0.0
 11
283.0381334000001061
 21
35.4157371000000083
 31
0.0
  0
LINE
  5
202
100
AcDbEntity
  8
standard-shift-row
 62
256
370
-1
 48
1.0
  6
BYLAYER
100
AcDbLine
 10
283.0381334000001061
 20
35.4157371000000083
 30
0.0
 11
283.0381334000001061
 21
34.8164371000000088
 31
0.0
  0
LINE
  5
203
100
AcDbEntity
  8
standard-shift-row
 62
256
370
-1
 48
1.0
  6
BYLAYER
100
AcDbLine
 10
283.0381334000001061
 20
34.8164371000000088
 30
0.0
 11
283.8361334000001079
 21
34.8164371000000088
 31
0.0
  0
LINE
  5
204
100
AcDbEntity
  8
standard-shift-row
 62
256
370
-1
 48
1.0
  6
BYLAYER
100
AcDbLine
 10
283.8361334000001079
 20
34.8164371000000088
 30
0.0
 11
283.8361334000001079
 21
22.0144371000000199
 31
0.0
  0
LINE
  5
205
100
AcDbEntity
  8
standard-shift-row
 62
256
370
-1
 48
1.0
  6
BYLAYER
100
AcDbLine
 10
283.8361334000001079
 20
22.0144371000000199
 30
0.0
 11
283.0381334000000493
 21
22.0144371000000163
 31
0.0
  0
LINE
  5
206
100
AcDbEntity
  8
standard-shift-row
 62
256
370
-1
 48
1.0
  6
BYLAYER
100
AcDbLine
 10
283.0381334000000493
 20
22.0144371000000163
 30
0.0
 11
283.0381334000001061
 21
21.4164371000000173
 31
0.0
  0
LINE
  5
207
100
AcDbEntity
  8
standard-shift-row
 62
256
370
-1
 48
1.0
  6
BYLAYER
100
AcDbLine
 10
283.0381334000001061
 20
21.4164371000000173
 30
0.0
 11
269.0371334000001298
 21
21.4164371000000173
 31
0.0
  0
LINE
  5
208
100
AcDbEntity
  8
standard-shift-row
 62
256
370
-1
 48
1.0
  6
BYLAYER
100
AcDbLine
 10
269.0371334000001298
 20
21.4164371000000173
 30
0.0
 11
269.0371334000000729
 21
22.0144371000000163
 31
0.0
  0
LINE
  5
209
100
AcDbEntity
  8
standard-shift-row
 62
256
370
-1
 48
1.0
  6
BYLAYER
100
AcDbLine
 10
269.0371334000000729
 20
22.0144371000000163
 30
0.0
 11
268.2391334000001279
 21
22.0144371000000199
 31
0.0
  0
LINE
  5
20A
100
AcDbEntity
  8
standard-shift-row
 62
256
370
-1
 48
1.0
  6
BYLAYER
100
AcDbLine
 10
268.2391334000001279
 20
22.0144371000000199
 30
0.0
 11
268.2391334000001279
 21
34.8164371000000088
 31
0.0
  0
LINE
  5
20B
100
AcDbEntity
  8
standard-shift-row
 62
256
370
-1
 48
1.0
  6
BYLAYER
100
AcDbLine
 10
268.2391334000001279
 20
34.8164371000000088
 30
0.0
 11
269.0371334000001298
 21
34.8164371000000088
 31
0.0
  0
LINE
  5
20C
100
AcDbEntity
  8
standard-shift-row
 62
256
370
-1
 48
1.0
  6
BYLAYER
100
AcDbLine
 10
269.0371334000001298
 20
34.8164371000000088
 30
0.0
 11
269.0371334000001298
 21
35.4157371000000083
 31
0.0
  0
LINE
  5
20D
100
AcDbEntity
  8
standard-shift-row
 62
256
370
-1
 48
1.0
  6
BYLAYER
100
AcDbLine
 10
242.8431334000000845
 20
35.4157371000000012
 30
0.0
 11
242.8431334000001129
 21
34.8164371000000159
 31
0.0
  0
LINE
  5
20E
100
AcDbEntity
  8
standard-shift-row
 62
256
370
-1
 48
1.0
  6
BYLAYER
100
AcDbLine
 10
242.8431334000001129
 20
34.8164371000000159
 30
0.0
 11
242.0461334000000591
 21
34.8164371000000088
 31
0.0
  0
LINE
  5
20F
100
AcDbEntity
  8
standard-shift-row
 62
256
370
-1
 48
1.0
  6
BYLAYER
100
AcDbLine
 10
242.0461334000000591
 20
34.8164371000000088
 30
0.0
 11
242.0461334000000591
 21
22.0144371000000163
 31
0.0
  0
LINE
  5
210
100
AcDbEntity
  8
standard-shift-row
 62
256
370
-1
 48
1.0
  6
BYLAYER
100
AcDbLine
 10
242.0461334000000591
 20
22.0144371000000163
 30
0.0
 11
242.8431334000001129
 21
22.0144371000000127
 31
0.0
  0
LINE
  5
211
100
AcDbEntity
  8
standard-shift-row
 62
256
370
-1
 48
1.0
  6
BYLAYER
100
AcDbLine
 10
242.8431334000001129
 20
22.0144371000000127
 30
0.0
 11
242.8431334000001129
 21
21.416437099999996
 31
0.0
  0
LINE
  5
212
100
AcDbEntity
  8
standard-shift-row
 62
256
370
-1
 48
1.0
  6
BYLAYER
100
AcDbLine
 10
242.8431334000001129
 20
21.416437099999996
 30
0.0
 11
256.8411334000001034
 21
21.4164371000000173
 31
0.0
  0
LINE
  5
213
100
AcDbEntity
  8
standard-shift-row
 62
256
370
-1
 48
1.0
  6
BYLAYER
100
AcDbLine
 10
256.8411334000001034
 20
21.4164371000000173
 30
0.0
 11
256.8411334000001034
 21
22.0144371000000163
 31
0.0
  0
LINE
  5
214
100
AcDbEntity
  8
standard-shift-row
 62
256
370
-1
 48
1.0
  6
BYLAYER
100
AcDbLine
 10
256.8411334000001034
 20
22.0144371000000163
 30
0.0
 11
257.6421334000000343
 21
22.0144371000000163
 31
0.0
  0
LINE
  5
215
100
AcDbEntity
  8
standard-shift-row
 62
256
370
-1
 48
1.0
  6
BYLAYER
100
AcDbLine
 10
257.6421334000000343
 20
22.0144371000000163
 30
0.0
 11
257.6421334000000343
 21
34.8164371000000088
 31
0.0
  0
LINE
  5
216
100
AcDbEntity
  8
standard-shift-row
 62
256
370
-1
 48
1.0
  6
BYLAYER
100
AcDbLine
 10
257.6421334000000343
 20
34.8164371000000088
 30
0.0
 11
256.8411334000000465
 21
34.8164371000000088
 31
0.0
  0
LINE
  5
217
100
AcDbEntity
  8
standard-shift-row
 62
256
370
-1
 48
1.0
  6
BYLAYER
100
AcDbLine
 10
256.8411334000000465
 20
34.8164371000000088
 30
0.0
 11
256.8411334000000465
 21
35.4157371000000083
 31
0.0
  0
LINE
  5
218
100
AcDbEntity
  8
standard-shift-row
 62
256
370
-1
 48
1.0
  6
BYLAYER
100
AcDbLine
 10
256.8411334000000465
 20
35.4157371000000083
 30
0.0
 11
242.8431334000000845
 21
35.4157371000000083
 31
0.0
  0
LINE
  5
219
100
AcDbEntity
  8
vintage-shift-row
 62
256
370
-1
 48
1.0
  6
BYLAYER
100
AcDbLine
 10
19.0073334000000216
 20
35.4157371000000012
 30
0.0
 11
33.0079334000000131
 21
35.4157371000000012
 31
0.0
  0
LINE
  5
21A
100
AcDbEntity
  8
vintage-shift-row
 62
256
370
-1
 48
1.0
  6
BYLAYER
100
AcDbLine
 10
33.0079334000000131
 20
35.4157371000000012
 30
0.0
 11
33.0079334000000131
 21
34.8164370999999946
 31
0.0
  0
LINE
  5
21B
100
AcDbEntity
  8
vintage-shift-row
 62
256
370
-1
 48
1.0
  6
BYLAYER
100
AcDbLine
 10
33.0079334000000131
 20
34.8164370999999946
 30
0.0
 11
33.807333400000033
 21
34.8164371000000017
 31
0.0
  0
LINE
  5
21C
100
AcDbEntity
  8
vintage-shift-row
 62
256
370
-1
 48
1.0
  6
BYLAYER
100
AcDbLine
 10
33.807333400000033
 20
34.8164371000000017
 30
0.0
 11
33.807333400000033
 21
22.0144371000000092
 31
0.0
  0
LINE
  5
21D
100
AcDbEntity
  8
vintage-shift-row
 62
256
370
-1
 48
1.0
  6
BYLAYER
100
AcDbLine
 10
33.807333400000033
 20
22.0144371000000092
 30
0.0
 11
33.0079334000000131
 21
22.0144371000000092
 31
0.0
  0
LINE
  5
21E
100
AcDbEntity
  8
vintage-shift-row
 62
256
370
-1
 48
1.0
  6
BYLAYER
100
AcDbLine
 10
33.0079334000000131
 20
22.0144371000000092
 30
0.0
 11
33.0079334000000131
 21
21.4164370999999925
 31
0.0
  0
LINE
  5
21F
100
AcDbEntity
  8
vintage-shift-row
 62
256
370
-1
 48
1.0
  6
BYLAYER
100
AcDbLine
 10
33.0079334000000131
 20
21.4164370999999925
 30
0.0
 11
19.0073334000000216
 21
21.4164370999999925
 31
0.0
  0
LINE
  5
220
100
AcDbEntity
  8
vintage-shift-row
 62
256
370
-1
 48
1.0
  6
BYLAYER
100
AcDbLine
 10
19.0073334000000216
 20
21.4164370999999925
 30
0.0
 11
19.007333400000018
 21
22.0144371000000092
 31
0.0
  0
LINE
  5
221
100
AcDbEntity
  8
vintage-shift-row
 62
256
370
-1
 48
1.0
  6
BYLAYER
100
AcDbLine
 10
19.007333400000018
 20
22.0144371000000092
 30
0.0
 11
18.2079334000000301
 21
22.0144371000000127
 31
0.0
  0
LINE
  5
222
100
AcDbEntity
  8
vintage-shift-row
 62
256
370
-1
 48
1.0
  6
BYLAYER
100
AcDbLine
 10
18.2079334000000301
 20
22.0144371000000127
 30
0.0
 11
18.2079334000000301
 21
34.8164371000000017
 31
0.0
  0
LINE
  5
223
100
AcDbEntity
  8
vintage-shift-row
 62
256
370
-1
 48
1.0
  6
BYLAYER
100
AcDbLine
 10
18.2079334000000301
 20
34.8164371000000017
 30
0.0
 11
19.007333400000018
 21
34.8164371000000017
 31
0.0
  0
LINE
  5
224
100
AcDbEntity
  8
vintage-shift-row
 62
256
370
-1
 48
1.0
  6
BYLAYER
100
AcDbLine
 10
19.007333400000018
 20
34.8164371000000017
 30
0.0
 11
19.0073334000000216
 21
35.4157371000000012
 31
0.0
  0
LINE
  5
225
100
AcDbEntity
  8
vintage-shift-row
 62
256
370
-1
 48
1.0
  6
BYLAYER
100
AcDbLine
 10
238.0811333999999988
 20
35.4157371000000012
 30
0.0
 11
238.0811333999999988
 21
34.8164371000000017
 31
0.0
  0
LINE
  5
226
100
AcDbEntity
  8
vintage-shift-row
 62
256
370
-1
 48
1.0
  6
BYLAYER
100
AcDbLine
 10
238.0811333999999988
 20
34.8164371000000017
 30
0.0
 11
237.2811334000000159
 21
34.8164370999999946
 31
0.0
  0
LINE
  5
227
100
AcDbEntity
  8
vintage-shift-row
 62
256
370
-1
 48
1.0
  6
BYLAYER
100
AcDbLine
 10
237.2811334000000159
 20
34.8164370999999946
 30
0.0
 11
237.2811334000000159
 21
22.0144371000000056
 31
0.0
  0
LINE
  5
228
100
AcDbEntity
  8
vintage-shift-row
 62
256
370
-1
 48
1.0
  6
BYLAYER
100
AcDbLine
 10
237.2811334000000159
 20
22.0144371000000056
 30
0.0
 11
238.0811334000000272
 21
22.0144371000000056
 31
0.0
  0
LINE
  5
229
100
AcDbEntity
  8
vintage-shift-row
 62
256
370
-1
 48
1.0
  6
BYLAYER
100
AcDbLine
 10
238.0811334000000272
 20
22.0144371000000056
 30
0.0
 11
238.0811333999999988
 21
21.416437099999996
 31
0.0
  0
LINE
  5
22A
100
AcDbEntity
  8
vintage-shift-row
 62
256
370
-1
 48
1.0
  6
BYLAYER
100
AcDbLine
 10
238.0811333999999988
 20
21.416437099999996
 30
0.0
 11
252.0811333999999704
 21
21.416437099999996
 31
0.0
  0
LINE
  5
22B
100
AcDbEntity
  8
vintage-shift-row
 62
256
370
-1
 48
1.0
  6
BYLAYER
100
AcDbLine
 10
252.0811333999999704
 20
21.416437099999996
 30
0.0
 11
252.0811333999999704
 21
22.0144371000000127
 31
0.0
  0
LINE
  5
22C
100
AcDbEntity
  8
vintage-shift-row
 62
256
370
-1
 48
1.0
  6
BYLAYER
100
AcDbLine
 10
252.0811333999999704
 20
22.0144371000000127
 30
0.0
 11
252.881133400000067
 21
22.0144371000000092
 31
0.0
  0
LINE
  5
22D
100
AcDbEntity
  8
vintage-shift-row
 62
256
370
-1
 48
1.0
  6
BYLAYER
100
AcDbLine
 10
252.881133400000067
 20
22.0144371000000092
 30
0.0
 11
252.881133400000067
 21
34.8164371000000017
 31
0.0
  0
LINE
  5
22E
100
AcDbEntity
  8
vintage-shift-row
 62
256
370
-1
 48
1.0
  6
BYLAYER
100
AcDbLine
 10
252.881133400000067
 20
34.8164371000000017
 30
0.0
 11
252.0811333999999988
 21
34.8164370999999804
 31
0.0
  0
LINE
  5
22F
100
AcDbEntity
  8
vintage-shift-row
 62
256
370
-1
 48
1.0
  6
BYLAYER
100
AcDbLine
 10
252.0811333999999988
 20
34.8164370999999804
 30
0.0
 11
252.0811333999999988
 21
35.4157371000000012
 31
0.0
  0
LINE
  5
230
100
AcDbEntity
  8
vintage-shift-row
 62
256
370
-1
 48
1.0
  6
BYLAYER
100
AcDbLine
 10
252.0811333999999988
 20
35.4157371000000012
 30
0.0
 11
238.0811333999999988
 21
35.4157371000000012
 31
0.0
  0
LINE
  5
231
100
AcDbEntity
  8
vintage-shift-row
 62
256
370
-1
 48
1.0
  6
BYLAYER
100
AcDbLine
 10
259.5121334000000388
 20
35.4157371000000083
 30
0.0
 11
273.513133400000072
 21
35.4157371000000083
 31
0.0
  0
LINE
  5
232
100
AcDbEntity
  8
vintage-shift-row
 62
256
370
-1
 48
1.0
  6
BYLAYER
100
AcDbLine
 10
273.513133400000072
 20
35.4157371000000083
 30
0.0
 11
273.5131334000000152
 21
34.8164371000000088
 31
0.0
  0
LINE
  5
233
100
AcDbEntity
  8
vintage-shift-row
 62
256
370
-1
 48
1.0
  6
BYLAYER
100
AcDbLine
 10
273.5131334000000152
 20
34.8164371000000088
 30
0.0
 11
274.3121333999999933
 21
34.8164371000000017
 31
0.0
  0
LINE
  5
234
100
AcDbEntity
  8
vintage-shift-row
 62
256
370
-1
 48
1.0
  6
BYLAYER
100
AcDbLine
 10
274.3121333999999933
 20
34.8164371000000017
 30
0.0
 11
274.3121333999999933
 21
22.0144371000000056
 31
0.0
  0
LINE
  5
235
100
AcDbEntity
  8
vintage-shift-row
 62
256
370
-1
 48
1.0
  6
BYLAYER
100
AcDbLine
 10
274.3121333999999933
 20
22.0144371000000056
 30
0.0
 11
273.513133400000072
 21
22.0144371000000092
 31
0.0
  0
LINE
  5
236
100
AcDbEntity
  8
vintage-shift-row
 62
256
370
-1
 48
1.0
  6
BYLAYER
100
AcDbLine
 10
273.513133400000072
 20
22.0144371000000092
 30
0.0
 11
273.5131334000000152
 21
21.4164371000000173
 31
0.0
  0
LINE
  5
237
100
AcDbEntity
  8
vintage-shift-row
 62
256
370
-1
 48
1.0
  6
BYLAYER
100
AcDbLine
 10
273.5131334000000152
 20
21.4164371000000173
 30
0.0
 11
259.5121334000000388
 21
21.4164370999999996
 31
0.0
  0
LINE
  5
238
100
AcDbEntity
  8
vintage-shift-row
 62
256
370
-1
 48
1.0
  6
BYLAYER
100
AcDbLine
 10
259.5121334000000388
 20
21.4164370999999996
 30
0.0
 11
259.5121334000000388
 21
22.0144371000000021
 31
0.0
  0
LINE
  5
239
100
AcDbEntity
  8
vintage-shift-row
 62
256
370
-1
 48
1.0
  6
BYLAYER
100
AcDbLine
 10
259.5121334000000388
 20
22.0144371000000021
 30
0.0
 11
258.7131334000000606
 21
22.0144371000000056
 31
0.0
  0
LINE
  5
23A
100
AcDbEntity
  8
vintage-shift-row
 62
256
370
-1
 48
1.0
  6
BYLAYER
100
AcDbLine
 10
258.7131334000000606
 20
22.0144371000000056
 30
0.0
 11
258.7131334000000606
 21
34.8164371000000017
 31
0.0
  0
LINE
  5
23B
100
AcDbEntity
  8
vintage-shift-row
 62
256
370
-1
 48
1.0
  6
BYLAYER
100
AcDbLine
 10
258.7131334000000606
 20
34.8164371000000017
 30
0.0
 11
259.5121334000000388
 21
34.8164371000000088
 31
0.0
  0
LINE
  5
23C
100
AcDbEntity
  8
vintage-shift-row
 62
256
370
-1
 48
1.0
  6
BYLAYER
100
AcDbLine
 10
259.5121334000000388
 20
34.8164371000000088
 30
0.0
 11
259.5121334000000388
 21
35.4157371000000083
 31
0.0
  0
LINE
  5
23D
100
AcDbEntity
  8
6u-bottom-row
 62
256
370
-1
 48
1.0
  6
BYLAYER
100
AcDbLine
 10
30.9135334000000377
 20
16.3658370999999967
 30
0.0
 11
44.9128334000000038
 21
16.3657370999999898
 31
0.0
  0
LINE
  5
23E
100
AcDbEntity
  8
6u-bottom-row
 62
256
370
-1
 48
1.0
  6
BYLAYER
100
AcDbLine
 10
44.9128334000000038
 20
16.3657370999999898
 30
0.0
 11
44.9128334000000109
 21
15.7650371000000007
 31
0.0
  0
LINE
  5
23F
100
AcDbEntity
  8
6u-bottom-row
 62
256
370
-1
 48
1.0
  6
BYLAYER
100
AcDbLine
 10
44.9128334000000109
 20
15.7650371000000007
 30
0.0
 11
45.7136334000000204
 21
15.7650370999999989
 31
0.0
  0
LINE
  5
240
100
AcDbEntity
  8
6u-bottom-row
 62
256
370
-1
 48
1.0
  6
BYLAYER
100
AcDbLine
 10
45.7136334000000204
 20
15.7650370999999989
 30
0.0
 11
45.7136334000000204
 21
2.9644370999999974
 31
0.0
  0
LINE
  5
241
100
AcDbEntity
  8
6u-bottom-row
 62
256
370
-1
 48
1.0
  6
BYLAYER
100
AcDbLine
 10
45.7136334000000204
 20
2.9644370999999974
 30
0.0
 11
44.9128334000000109
 21
2.9644370999999974
 31
0.0
  0
LINE
  5
242
100
AcDbEntity
  8
6u-bottom-row
 62
256
370
-1
 48
1.0
  6
BYLAYER
100
AcDbLine
 10
44.9128334000000109
 20
2.9644370999999974
 30
0.0
 11
44.9128334000000109
 21
2.3649970999999823
 31
0.0
  0
LINE
  5
243
100
AcDbEntity
  8
6u-bottom-row
 62
256
370
-1
 48
1.0
  6
BYLAYER
100
AcDbLine
 10
44.9128334000000109
 20
2.3649970999999823
 30
0.0
 11
30.9135334000000306
 21
2.3649970999999823
 31
0.0
  0
LINE
  5
244
100
AcDbEntity
  8
6u-bottom-row
 62
256
370
-1
 48
1.0
  6
BYLAYER
100
AcDbLine
 10
30.9135334000000306
 20
2.3649970999999823
 30
0.0
 11
30.9135334000000306
 21
2.9658270999999847
 31
0.0
  0
LINE
  5
245
100
AcDbEntity
  8
6u-bottom-row
 62
256
370
-1
 48
1.0
  6
BYLAYER
100
AcDbLine
 10
30.9135334000000306
 20
2.9658270999999847
 30
0.0
 11
30.1127333999999927
 21
2.9658270999999843
 31
0.0
  0
LINE
  5
246
100
AcDbEntity
  8
6u-bottom-row
 62
256
370
-1
 48
1.0
  6
BYLAYER
100
AcDbLine
 10
30.1127333999999927
 20
2.9658270999999843
 30
0.0
 11
30.1127333999999962
 21
15.7650371000000007
 31
0.0
  0
LINE
  5
247
100
AcDbEntity
  8
6u-bottom-row
 62
256
370
-1
 48
1.0
  6
BYLAYER
100
AcDbLine
 10
30.1127333999999962
 20
15.7650371000000007
 30
0.0
 11
30.9135334000000341
 21
15.7650371000000025
 31
0.0
  0
LINE
  5
248
100
AcDbEntity
  8
6u-bottom-row
 62
256
370
-1
 48
1.0
  6
BYLAYER
100
AcDbLine
 10
30.9135334000000341
 20
15.7650371000000025
 30
0.0
 11
30.9135334000000306
 21
16.3657370999999898
 31
0.0
  0
LINE
  5
249
100
AcDbEntity
  8
6u-bottom-row
 62
256
370
-1
 48
1.0
  6
BYLAYER
100
AcDbLine
 10
54.7261334000000303
 20
16.3658370999999896
 30
0.0
 11
68.7251334000000185
 21
16.3658370999999896
 31
0.0
  0
LINE
  5
24A
100
AcDbEntity
  8
6u-bottom-row
 62
256
370
-1
 48
1.0
  6
BYLAYER
100
AcDbLine
 10
68.7251334000000185
 20
16.3658370999999896
 30
0.0
 11
68.7251334000000185
 21
15.7650371000000007
 31
0.0
  0
LINE
  5
24B
100
AcDbEntity
  8
6u-bottom-row
 62
256
370
-1
 48
1.0
  6
BYLAYER
100
AcDbLine
 10
68.7251334000000185
 20
15.7650371000000007
 30
0.0
 11
69.5261334000000346
 21
15.7650371000000007
 31
0.0
  0
LINE
  5
24C
100
AcDbEntity
  8
6u-bottom-row
 62
256
370
-1
 48
1.0
  6
BYLAYER
100
AcDbLine
 10
69.5261334000000346
 20
15.7650371000000007
 30
0.0
 11
69.5261334000000346
 21
2.9658270999999981
 31
0.0
  0
LINE
  5
24D
100
AcDbEntity
  8
6u-bottom-row
 62
256
370
-1
 48
1.0
  6
BYLAYER
100
AcDbLine
 10
69.5261334000000346
 20
2.9658270999999981
 30
0.0
 11
68.7251334000000327
 21
2.9658270999999985
 31
0.0
  0
LINE
  5
24E
100
AcDbEntity
  8
6u-bottom-row
 62
256
370
-1
 48
1.0
  6
BYLAYER
100
AcDbLine
 10
68.7251334000000327
 20
2.9658270999999985
 30
0.0
 11
68.7251334000000469
 21
2.364997099999997
 31
0.0
  0
LINE
  5
24F
100
AcDbEntity
  8
6u-bottom-row
 62
256
370
-1
 48
1.0
  6
BYLAYER
100
AcDbLine
 10
68.7251334000000469
 20
2.364997099999997
 30
0.0
 11
54.7261334000000161
 21
2.364997099999997
 31
0.0
  0
LINE
  5
250
100
AcDbEntity
  8
6u-bottom-row
 62
256
370
-1
 48
1.0
  6
BYLAYER
100
AcDbLine
 10
54.7261334000000161
 20
2.364997099999997
 30
0.0
 11
54.7261334000000232
 21
2.9658270999999985
 31
0.0
  0
LINE
  5
251
100
AcDbEntity
  8
6u-bottom-row
 62
256
370
-1
 48
1.0
  6
BYLAYER
100
AcDbLine
 10
54.7261334000000232
 20
2.9658270999999985
 30
0.0
 11
53.9271334000000309
 21
2.9658270999999985
 31
0.0
  0
LINE
  5
252
100
AcDbEntity
  8
6u-bottom-row
 62
256
370
-1
 48
1.0
  6
BYLAYER
100
AcDbLine
 10
53.9271334000000309
 20
2.9658270999999985
 30
0.0
 11
53.9271334000000309
 21
15.7650371000000025
 31
0.0
  0
LINE
  5
253
100
AcDbEntity
  8
6u-bottom-row
 62
256
370
-1
 48
1.0
  6
BYLAYER
100
AcDbLine
 10
53.9271334000000309
 20
15.7650371000000025
 30
0.0
 11
54.7261334000000303
 21
15.7650371000000007
 31
0.0
  0
LINE
  5
254
100
AcDbEntity
  8
6u-bottom-row
 62
256
370
-1
 48
1.0
  6
BYLAYER
100
AcDbLine
 10
54.7261334000000303
 20
15.7650371000000007
 30
0.0
 11
54.7261334000000303
 21
16.3658370999999896
 31
0.0
  0
LINE
  5
255
100
AcDbEntity
  8
layer 1
 62
256
370
-1
 48
1.0
  6
BYLAYER
100
AcDbLine
 10
182.3141334000000597
 20
2.9148870999998735
 30
0.0
 11
182.3141334000000597
 21
3.8353870999998776
 31
0.0
  0
LINE
  5
256
100
AcDbEntity
  8
6u-bottom-row
 62
256
370
-1
 48
1.0
  6
BYLAYER
100
AcDbLine
 10
84.0131334000000294
 20
15.8160371000000026
 30
0.0
 11
84.0131334000000436
 21
14.8955371000000003
 31
0.0
  0
LINE
  5
257
100
AcDbEntity
  8
layer 1
 62
256
370
-1
 48
1.0
  6
BYLAYER
100
AcDbLine
 10
182.3141334000000597
 20
3.8353870999998776
 30
0.0
 11
184.0391334000000541
 21
3.8353870999998918
 31
0.0
  0
LINE
  5
258
100
AcDbEntity
  8
6u-bottom-row
 62
256
370
-1
 48
1.0
  6
BYLAYER
100
AcDbLine
 10
84.0131334000000436
 20
14.8955371000000003
 30
0.0
 11
82.2881334000000351
 21
14.8955370999999968
 31
0.0
  0
LINE
  5
259
100
AcDbEntity
  8
layer 1
 62
256
370
-1
 48
1.0
  6
BYLAYER
100
AcDbLine
 10
184.0391334000000541
 20
3.8353870999998918
 30
0.0
 11
184.0391334000000541
 21
7.0654870999998991
 31
0.0
  0
LINE
  5
25A
100
AcDbEntity
  8
6u-bottom-row
 62
256
370
-1
 48
1.0
  6
BYLAYER
100
AcDbLine
 10
82.2881334000000351
 20
14.8955370999999968
 30
0.0
 11
82.2881334000000351
 21
11.6654371000000054
 31
0.0
  0
LINE
  5
25B
100
AcDbEntity
  8
layer 1
 62
256
370
-1
 48
1.0
  6
BYLAYER
100
AcDbLine
 10
184.0391334000000541
 20
7.0654870999998991
 30
0.0
 11
184.8641334000000711
 21
7.0654870999998991
 31
0.0
  0
LINE
  5
25C
100
AcDbEntity
  8
6u-bottom-row
 62
256
370
-1
 48
1.0
  6
BYLAYER
100
AcDbLine
 10
82.2881334000000351
 20
11.6654371000000054
 30
0.0
 11
81.463133400000018
 21
11.6654371000000072
 31
0.0
  0
LINE
  5
25D
100
AcDbEntity
  8
layer 1
 62
256
370
-1
 48
1.0
  6
BYLAYER
100
AcDbLine
 10
184.8641334000000711
 20
7.0654870999998991
 30
0.0
 11
184.8641334000000711
 21
9.8670770999998751
 31
0.0
  0
LINE
  5
25E
100
AcDbEntity
  8
6u-bottom-row
 62
256
370
-1
 48
1.0
  6
BYLAYER
100
AcDbLine
 10
81.463133400000018
 20
11.6654371000000072
 30
0.0
 11
81.463133400000018
 21
8.863847100000001
 31
0.0
  0
LINE
  5
25F
100
AcDbEntity
  8
layer 1
 62
256
370
-1
 48
1.0
  6
BYLAYER
100
AcDbLine
 10
184.8641334000000711
 20
9.8670770999998751
 30
0.0
 11
184.0391334000000256
 21
9.8670770999998751
 31
0.0
  0
LINE
  5
260
100
AcDbEntity
  8
6u-bottom-row
 62
256
370
-1
 48
1.0
  6
BYLAYER
100
AcDbLine
 10
81.463133400000018
 20
8.863847100000001
 30
0.0
 11
82.2881334000000493
 21
8.863847100000001
 31
0.0
  0
LINE
  5
261
100
AcDbEntity
  8
layer 1
 62
256
370
-1
 48
1.0
  6
BYLAYER
100
AcDbLine
 10
184.0391334000000256
 20
9.8670770999998751
 30
0.0
 11
184.0391334000000256
 21
16.1357870999998738
 31
0.0
  0
LINE
  5
262
100
AcDbEntity
  8
6u-bottom-row
 62
256
370
-1
 48
1.0
  6
BYLAYER
100
AcDbLine
 10
82.2881334000000493
 20
8.863847100000001
 30
0.0
 11
82.2881334000000493
 21
2.5951371000000019
 31
0.0
  0
LINE
  5
263
100
AcDbEntity
  8
layer 1
 62
256
370
-1
 48
1.0
  6
BYLAYER
100
AcDbLine
 10
184.0391334000000256
 20
16.1357870999998738
 30
0.0
 11
182.3141334000000597
 21
16.1357870999998738
 31
0.0
  0
LINE
  5
264
100
AcDbEntity
  8
6u-bottom-row
 62
256
370
-1
 48
1.0
  6
BYLAYER
100
AcDbLine
 10
82.2881334000000493
 20
2.5951371000000019
 30
0.0
 11
84.0131334000000294
 21
2.5951371000000023
 31
0.0
  0
LINE
  5
265
100
AcDbEntity
  8
layer 1
 62
256
370
-1
 48
1.0
  6
BYLAYER
100
AcDbLine
 10
182.3141334000000597
 20
16.1357870999998738
 30
0.0
 11
182.3141334000000597
 21
17.1169570999998939
 31
0.0
  0
LINE
  5
266
100
AcDbEntity
  8
6u-bottom-row
 62
256
370
-1
 48
1.0
  6
BYLAYER
100
AcDbLine
 10
84.0131334000000294
 20
2.5951371000000023
 30
0.0
 11
84.0131334000000294
 21
1.6139670999999824
 31
0.0
  0
LINE
  5
267
100
AcDbEntity
  8
layer 1
 62
256
370
-1
 48
1.0
  6
BYLAYER
100
AcDbLine
 10
182.3141334000000597
 20
17.1169570999998939
 30
0.0
 11
179.013133400000072
 21
17.1169570999998939
 31
0.0
  0
LINE
  5
268
100
AcDbEntity
  8
6u-bottom-row
 62
256
370
-1
 48
1.0
  6
BYLAYER
100
AcDbLine
 10
84.0131334000000294
 20
1.6139670999999824
 30
0.0
 11
87.3141334000000313
 21
1.6139670999999824
 31
0.0
  0
LINE
  5
269
100
AcDbEntity
  8
layer 1
 62
256
370
-1
 48
1.0
  6
BYLAYER
100
AcDbLine
 10
179.013133400000072
 20
17.1169570999998939
 30
0.0
 11
179.013133400000072
 21
16.1357870999998738
 31
0.0
  0
LINE
  5
26A
100
AcDbEntity
  8
6u-bottom-row
 62
256
370
-1
 48
1.0
  6
BYLAYER
100
AcDbLine
 10
87.3141334000000313
 20
1.6139670999999824
 30
0.0
 11
87.3141334000000313
 21
2.5951371000000019
 31
0.0
  0
LINE
  5
26B
100
AcDbEntity
  8
layer 1
 62
256
370
-1
 48
1.0
  6
BYLAYER
100
AcDbLine
 10
179.013133400000072
 20
16.1357870999998738
 30
0.0
 11
177.2881334000000493
 21
16.1357870999998738
 31
0.0
  0
LINE
  5
26C
100
AcDbEntity
  8
6u-bottom-row
 62
256
370
-1
 48
1.0
  6
BYLAYER
100
AcDbLine
 10
87.3141334000000313
 20
2.5951371000000019
 30
0.0
 11
89.0391334000000541
 21
2.5951371000000023
 31
0.0
  0
LINE
  5
26D
100
AcDbEntity
  8
layer 1
 62
256
370
-1
 48
1.0
  6
BYLAYER
100
AcDbLine
 10
177.2881334000000493
 20
16.1357870999998738
 30
0.0
 11
177.2881334000000493
 21
11.6654370999998775
 31
0.0
  0
LINE
  5
26E
100
AcDbEntity
  8
6u-bottom-row
 62
256
370
-1
 48
1.0
  6
BYLAYER
100
AcDbLine
 10
89.0391334000000541
 20
2.5951371000000023
 30
0.0
 11
89.0391334000000541
 21
7.0654870999999995
 31
0.0
  0
LINE
  5
26F
100
AcDbEntity
  8
layer 1
 62
256
370
-1
 48
1.0
  6
BYLAYER
100
AcDbLine
 10
177.2881334000000493
 20
11.6654370999998775
 30
0.0
 11
131.4391334000000597
 21
11.665437099999906
 31
0.0
  0
LINE
  5
270
100
AcDbEntity
  8
layer 1
 62
256
370
-1
 48
1.0
  6
BYLAYER
100
AcDbLine
 10
131.4391334000000597
 20
11.665437099999906
 30
0.0
 11
131.4391334000000882
 21
15.7650970999999345
 31
0.0
  0
LINE
  5
271
100
AcDbEntity
  8
6u-bottom-row
 62
256
370
-1
 48
1.0
  6
BYLAYER
100
AcDbLine
 10
134.8881334000000152
 20
7.0654870999999977
 30
0.0
 11
134.8881334000000152
 21
2.9658270999999985
 31
0.0
  0
LINE
  5
272
100
AcDbEntity
  8
layer 1
 62
256
370
-1
 48
1.0
  6
BYLAYER
100
AcDbLine
 10
131.4391334000000882
 20
15.7650970999999345
 30
0.0
 11
130.6391334000000484
 21
15.7650970999998492
 31
0.0
  0
LINE
  5
273
100
AcDbEntity
  8
6u-bottom-row
 62
256
370
-1
 48
1.0
  6
BYLAYER
100
AcDbLine
 10
134.8881334000000152
 20
2.9658270999999985
 30
0.0
 11
135.6881334000000265
 21
2.9658270999999989
 31
0.0
  0
LINE
  5
274
100
AcDbEntity
  8
layer 1
 62
256
370
-1
 48
1.0
  6
BYLAYER
100
AcDbLine
 10
130.6391334000000484
 20
15.7650970999998492
 30
0.0
 11
130.6391334000000484
 21
16.3659270999998228
 31
0.0
  0
LINE
  5
275
100
AcDbEntity
  8
6u-bottom-row
 62
256
370
-1
 48
1.0
  6
BYLAYER
100
AcDbLine
 10
135.6881334000000265
 20
2.9658270999999989
 30
0.0
 11
135.6881334000000265
 21
2.3649970999999965
 31
0.0
  0
LINE
  5
276
100
AcDbEntity
  8
layer 1
 62
256
370
-1
 48
1.0
  6
BYLAYER
100
AcDbLine
 10
130.6391334000000484
 20
16.3659270999998228
 30
0.0
 11
116.6391334000000484
 21
16.365927099999837
 31
0.0
  0
LINE
  5
277
100
AcDbEntity
  8
6u-bottom-row
 62
256
370
-1
 48
1.0
  6
BYLAYER
100
AcDbLine
 10
135.6881334000000265
 20
2.3649970999999965
 30
0.0
 11
149.6881334000000265
 21
2.3649970999999965
 31
0.0
  0
LINE
  5
278
100
AcDbEntity
  8
layer 1
 62
256
370
-1
 48
1.0
  6
BYLAYER
100
AcDbLine
 10
116.6391334000000484
 20
16.365927099999837
 30
0.0
 11
116.6391334000000768
 21
15.7650970999999203
 31
0.0
  0
LINE
  5
279
100
AcDbEntity
  8
6u-bottom-row
 62
256
370
-1
 48
1.0
  6
BYLAYER
100
AcDbLine
 10
149.6881334000000265
 20
2.3649970999999965
 30
0.0
 11
149.6881334000000265
 21
2.9658270999999985
 31
0.0
  0
LINE
  5
27A
100
AcDbEntity
  8
layer 1
 62
256
370
-1
 48
1.0
  6
BYLAYER
100
AcDbLine
 10
116.6391334000000768
 20
15.7650970999999203
 30
0.0
 11
115.8401334000000986
 21
15.7650970999998918
 31
0.0
  0
LINE
  5
27B
100
AcDbEntity
  8
6u-bottom-row
 62
256
370
-1
 48
1.0
  6
BYLAYER
100
AcDbLine
 10
149.6881334000000265
 20
2.9658270999999985
 30
0.0
 11
150.4871334000000047
 21
2.9658270999999981
 31
0.0
  0
LINE
  5
27C
100
AcDbEntity
  8
layer 1
 62
256
370
-1
 48
1.0
  6
BYLAYER
100
AcDbLine
 10
115.8401334000000986
 20
15.7650970999998918
 30
0.0
 11
115.8401334000000986
 21
11.6654370999999486
 31
0.0
  0
LINE
  5
27D
100
AcDbEntity
  8
6u-bottom-row
 62
256
370
-1
 48
1.0
  6
BYLAYER
100
AcDbLine
 10
150.4871334000000047
 20
2.9658270999999981
 30
0.0
 11
150.4871334000000047
 21
7.0654870999999977
 31
0.0
  0
LINE
  5
27E
100
AcDbEntity
  8
layer 1
 62
256
370
-1
 48
1.0
  6
BYLAYER
100
AcDbLine
 10
115.8401334000000986
 20
11.6654370999999486
 30
0.0
 11
89.0391334000000256
 21
11.6654370999999912
 31
0.0
  0
LINE
  5
27F
100
AcDbEntity
  8
6u-bottom-row
 62
256
370
-1
 48
1.0
  6
BYLAYER
100
AcDbLine
 10
150.4871334000000047
 20
7.0654870999999977
 30
0.0
 11
177.2881334000000493
 21
7.0654870999999986
 31
0.0
  0
LINE
  5
280
100
AcDbEntity
  8
layer 1
 62
256
370
-1
 48
1.0
  6
BYLAYER
100
AcDbLine
 10
89.0391334000000256
 20
11.6654370999999912
 30
0.0
 11
89.0391334000000256
 21
16.1357870999998312
 31
0.0
  0
LINE
  5
281
100
AcDbEntity
  8
6u-bottom-row
 62
256
370
-1
 48
1.0
  6
BYLAYER
100
AcDbLine
 10
177.2881334000000493
 20
7.0654870999999986
 30
0.0
 11
177.2881334000000493
 21
2.5951371000000023
 31
0.0
  0
LINE
  5
282
100
AcDbEntity
  8
layer 1
 62
256
370
-1
 48
1.0
  6
BYLAYER
100
AcDbLine
 10
89.0391334000000256
 20
16.1357870999998312
 30
0.0
 11
87.3131334000000265
 21
16.1357870999998028
 31
0.0
  0
LINE
  5
283
100
AcDbEntity
  8
6u-bottom-row
 62
256
370
-1
 48
1.0
  6
BYLAYER
100
AcDbLine
 10
177.2881334000000493
 20
2.5951371000000023
 30
0.0
 11
179.0141334000000768
 21
2.5951371000000019
 31
0.0
  0
LINE
  5
284
100
AcDbEntity
  8
layer 1
 62
256
370
-1
 48
1.0
  6
BYLAYER
100
AcDbLine
 10
87.3131334000000265
 20
16.1357870999998028
 30
0.0
 11
87.3131333999999981
 21
17.1169570999998655
 31
0.0
  0
LINE
  5
285
100
AcDbEntity
  8
6u-bottom-row
 62
256
370
-1
 48
1.0
  6
BYLAYER
100
AcDbLine
 10
179.0141334000000768
 20
2.5951371000000019
 30
0.0
 11
179.0141334000000768
 21
1.6139670999999822
 31
0.0
  0
LINE
  5
286
100
AcDbEntity
  8
layer 1
 62
256
370
-1
 48
1.0
  6
BYLAYER
100
AcDbLine
 10
87.3131333999999981
 20
17.1169570999998655
 30
0.0
 11
84.0141334000000484
 21
17.1169570999998797
 31
0.0
  0
LINE
  5
287
100
AcDbEntity
  8
6u-bottom-row
 62
256
370
-1
 48
1.0
  6
BYLAYER
100
AcDbLine
 10
179.0141334000000768
 20
1.6139670999999822
 30
0.0
 11
182.3131334000000265
 21
1.6139670999999822
 31
0.0
  0
LINE
  5
288
100
AcDbEntity
  8
layer 1
 62
256
370
-1
 48
1.0
  6
BYLAYER
100
AcDbLine
 10
84.0141334000000484
 20
17.1169570999998797
 30
0.0
 11
84.0141334000001052
 21
16.1357871000001154
 31
0.0
  0
LINE
  5
289
100
AcDbEntity
  8
6u-bottom-row
 62
256
370
-1
 48
1.0
  6
BYLAYER
100
AcDbLine
 10
182.3131334000000265
 20
1.6139670999999822
 30
0.0
 11
182.3131333999999981
 21
2.5951371000000019
 31
0.0
  0
LINE
  5
28A
100
AcDbEntity
  8
layer 1
 62
256
370
-1
 48
1.0
  6
BYLAYER
100
AcDbLine
 10
84.0141334000001052
 20
16.1357871000001154
 30
0.0
 11
82.2891334000000256
 21
16.1357870999999307
 31
0.0
  0
LINE
  5
28B
100
AcDbEntity
  8
6u-bottom-row
 62
256
370
-1
 48
1.0
  6
BYLAYER
100
AcDbLine
 10
182.3131333999999981
 20
2.5951371000000019
 30
0.0
 11
184.0381334000000777
 21
2.5951371000000023
 31
0.0
  0
LINE
  5
28C
100
AcDbEntity
  8
layer 1
 62
256
370
-1
 48
1.0
  6
BYLAYER
100
AcDbLine
 10
82.2891334000000256
 20
16.1357870999999307
 30
0.0
 11
82.2891334000000256
 21
9.8670770999997757
 31
0.0
  0
LINE
  5
28D
100
AcDbEntity
  8
6u-bottom-row
 62
256
370
-1
 48
1.0
  6
BYLAYER
100
AcDbLine
 10
184.0381334000000777
 20
2.5951371000000023
 30
0.0
 11
184.0381334000000493
 21
8.863847100000001
 31
0.0
  0
LINE
  5
28E
100
AcDbEntity
  8
layer 1
 62
256
370
-1
 48
1.0
  6
BYLAYER
100
AcDbLine
 10
82.2891334000000256
 20
9.8670770999997757
 30
0.0
 11
81.4651334000000702
 21
9.8670770999999746
 31
0.0
  0
LINE
  5
28F
100
AcDbEntity
  8
6u-bottom-row
 62
256
370
-1
 48
1.0
  6
BYLAYER
100
AcDbLine
 10
184.0381334000000493
 20
8.863847100000001
 30
0.0
 11
184.8621334000000331
 21
8.863847100000001
 31
0.0
  0
LINE
  5
290
100
AcDbEntity
  8
layer 1
 62
256
370
-1
 48
1.0
  6
BYLAYER
100
AcDbLine
 10
81.4651334000000702
 20
9.8670770999999746
 30
0.0
 11
81.4651334000000702
 21
7.0654870999999133
 31
0.0
  0
LINE
  5
291
100
AcDbEntity
  8
6u-bottom-row
 62
256
370
-1
 48
1.0
  6
BYLAYER
100
AcDbLine
 10
184.8621334000000331
 20
8.863847100000001
 30
0.0
 11
184.8621334000000331
 21
11.6654371000000072
 31
0.0
  0
LINE
  5
292
100
AcDbEntity
  8
layer 1
 62
256
370
-1
 48
1.0
  6
BYLAYER
100
AcDbLine
 10
81.4651334000000702
 20
7.0654870999999133
 30
0.0
 11
82.2891334000000256
 21
7.0654870999999133
 31
0.0
  0
LINE
  5
293
100
AcDbEntity
  8
6u-bottom-row
 62
256
370
-1
 48
1.0
  6
BYLAYER
100
AcDbLine
 10
184.8621334000000331
 20
11.6654371000000072
 30
0.0
 11
184.0381334000000493
 21
11.6654371000000054
 31
0.0
  0
LINE
  5
294
100
AcDbEntity
  8
layer 1
 62
256
370
-1
 48
1.0
  6
BYLAYER
100
AcDbLine
 10
82.2891334000000256
 20
7.0654870999999133
 30
0.0
 11
82.2891334000000256
 21
3.8353870999999202
 31
0.0
  0
LINE
  5
295
100
AcDbEntity
  8
6u-bottom-row
 62
256
370
-1
 48
1.0
  6
BYLAYER
100
AcDbLine
 10
184.0381334000000493
 20
11.6654371000000054
 30
0.0
 11
184.0381334000000493
 21
14.8955370999999968
 31
0.0
  0
LINE
  5
296
100
AcDbEntity
  8
layer 1
 62
256
370
-1
 48
1.0
  6
BYLAYER
100
AcDbLine
 10
82.2891334000000256
 20
3.8353870999999202
 30
0.0
 11
84.0141334000000484
 21
3.835387099999636
 31
0.0
  0
LINE
  5
297
100
AcDbEntity
  8
6u-bottom-row
 62
256
370
-1
 48
1.0
  6
BYLAYER
100
AcDbLine
 10
184.0381334000000493
 20
14.8955370999999968
 30
0.0
 11
182.313133400000055
 21
14.8955371000000003
 31
0.0
  0
LINE
  5
298
100
AcDbEntity
  8
layer 1
 62
256
370
-1
 48
1.0
  6
BYLAYER
100
AcDbLine
 10
84.0141334000000484
 20
3.835387099999636
 30
0.0
 11
84.0141334000000484
 21
2.9148871000001293
 31
0.0
  0
LINE
  5
299
100
AcDbEntity
  8
6u-bottom-row
 62
256
370
-1
 48
1.0
  6
BYLAYER
100
AcDbLine
 10
182.313133400000055
 20
14.8955371000000003
 30
0.0
 11
182.3131334000000265
 21
15.8160371000000062
 31
0.0
  0
LINE
  5
29A
100
AcDbEntity
  8
layer 1
 62
256
370
-1
 48
1.0
  6
BYLAYER
100
AcDbLine
 10
84.0141334000000484
 20
2.9148871000001293
 30
0.0
 11
87.3131334000000265
 21
2.9148870999997882
 31
0.0
  0
LINE
  5
29B
100
AcDbEntity
  8
6u-bottom-row
 62
256
370
-1
 48
1.0
  6
BYLAYER
100
AcDbLine
 10
182.3131334000000265
 20
15.8160371000000062
 30
0.0
 11
179.0141334000000768
 21
15.8160371000000062
 31
0.0
  0
LINE
  5
29C
100
AcDbEntity
  8
layer 1
 62
256
370
-1
 48
1.0
  6
BYLAYER
100
AcDbLine
 10
87.3131334000000265
 20
2.9148870999997882
 30
0.0
 11
87.3131334000000265
 21
3.8353870999999913
 31
0.0
  0
LINE
  5
29D
100
AcDbEntity
  8
6u-bottom-row
 62
256
370
-1
 48
1.0
  6
BYLAYER
100
AcDbLine
 10
179.0141334000000768
 20
15.8160371000000062
 30
0.0
 11
179.0141334000000768
 21
14.8955370999999968
 31
0.0
  0
LINE
  5
29E
100
AcDbEntity
  8
layer 1
 62
256
370
-1
 48
1.0
  6
BYLAYER
100
AcDbLine
 10
87.3131334000000265
 20
3.8353870999999913
 30
0.0
 11
89.0391334000000256
 21
3.8353870999998776
 31
0.0
  0
LINE
  5
29F
100
AcDbEntity
  8
6u-bottom-row
 62
256
370
-1
 48
1.0
  6
BYLAYER
100
AcDbLine
 10
179.0141334000000768
 20
14.8955370999999968
 30
0.0
 11
177.2881334000000493
 21
14.8955371000000003
 31
0.0
  0
LINE
  5
2A0
100
AcDbEntity
  8
layer 1
 62
256
370
-1
 48
1.0
  6
BYLAYER
100
AcDbLine
 10
89.0391334000000256
 20
3.8353870999998776
 30
0.0
 11
89.0391334000000256
 21
7.0654870999999133
 31
0.0
  0
LINE
  5
2A1
100
AcDbEntity
  8
6u-bottom-row
 62
256
370
-1
 48
1.0
  6
BYLAYER
100
AcDbLine
 10
177.2881334000000493
 20
14.8955371000000003
 30
0.0
 11
177.2881334000000777
 21
11.6654371000000054
 31
0.0
  0
LINE
  5
2A2
100
AcDbEntity
  8
layer 1
 62
256
370
-1
 48
1.0
  6
BYLAYER
100
AcDbLine
 10
89.0391334000000256
 20
7.0654870999999133
 30
0.0
 11
115.840133400000127
 21
7.0654870999999133
 31
0.0
  0
LINE
  5
2A3
100
AcDbEntity
  8
6u-bottom-row
 62
256
370
-1
 48
1.0
  6
BYLAYER
100
AcDbLine
 10
177.2881334000000777
 20
11.6654371000000054
 30
0.0
 11
150.4871333999999763
 21
11.6654371000000037
 31
0.0
  0
LINE
  5
2A4
100
AcDbEntity
  8
layer 1
 62
256
370
-1
 48
1.0
  6
BYLAYER
100
AcDbLine
 10
115.840133400000127
 20
7.0654870999999133
 30
0.0
 11
115.8401334000000702
 21
2.9658870999999039
 31
0.0
  0
LINE
  5
2A5
100
AcDbEntity
  8
6u-bottom-row
 62
256
370
-1
 48
1.0
  6
BYLAYER
100
AcDbLine
 10
150.4871333999999763
 20
11.6654371000000037
 30
0.0
 11
150.4871334000000047
 21
15.7650371000000007
 31
0.0
  0
LINE
  5
2A6
100
AcDbEntity
  8
layer 1
 62
256
370
-1
 48
1.0
  6
BYLAYER
100
AcDbLine
 10
115.8401334000000702
 20
2.9658870999999039
 30
0.0
 11
116.6391334000000484
 21
2.9658870999999039
 31
0.0
  0
LINE
  5
2A7
100
AcDbEntity
  8
6u-bottom-row
 62
256
370
-1
 48
1.0
  6
BYLAYER
100
AcDbLine
 10
150.4871334000000047
 20
15.7650371000000007
 30
0.0
 11
149.6881334000000265
 21
15.7650371000000025
 31
0.0
  0
LINE
  5
2A8
100
AcDbEntity
  8
layer 1
 62
256
370
-1
 48
1.0
  6
BYLAYER
100
AcDbLine
 10
116.6391334000000484
 20
2.9658870999999039
 30
0.0
 11
116.6391334000000484
 21
2.3650870999998972
 31
0.0
  0
LINE
  5
2A9
100
AcDbEntity
  8
6u-bottom-row
 62
256
370
-1
 48
1.0
  6
BYLAYER
100
AcDbLine
 10
149.6881334000000265
 20
15.7650371000000025
 30
0.0
 11
149.6881334000000265
 21
16.3658370999999931
 31
0.0
  0
LINE
  5
2AA
100
AcDbEntity
  8
layer 1
 62
256
370
-1
 48
1.0
  6
BYLAYER
100
AcDbLine
 10
116.6391334000000484
 20
2.3650870999998972
 30
0.0
 11
130.6391334000000484
 21
2.3650870999999114
 31
0.0
  0
LINE
  5
2AB
100
AcDbEntity
  8
6u-bottom-row
 62
256
370
-1
 48
1.0
  6
BYLAYER
100
AcDbLine
 10
149.6881334000000265
 20
16.3658370999999931
 30
0.0
 11
135.6881334000000265
 21
16.3658370999999931
 31
0.0
  0
LINE
  5
2AC
100
AcDbEntity
  8
layer 1
 62
256
370
-1
 48
1.0
  6
BYLAYER
100
AcDbLine
 10
130.6391334000000484
 20
2.3650870999999114
 30
0.0
 11
130.6391334000000484
 21
2.9658870999998612
 31
0.0
  0
LINE
  5
2AD
100
AcDbEntity
  8
6u-bottom-row
 62
256
370
-1
 48
1.0
  6
BYLAYER
100
AcDbLine
 10
135.6881334000000265
 20
16.3658370999999931
 30
0.0
 11
135.6881334000000265
 21
15.7650371000000025
 31
0.0
  0
LINE
  5
2AE
100
AcDbEntity
  8
layer 1
 62
256
370
-1
 48
1.0
  6
BYLAYER
100
AcDbLine
 10
130.6391334000000484
 20
2.9658870999998612
 30
0.0
 11
131.4391334000001166
 21
2.9658870999998612
 31
0.0
  0
LINE
  5
2AF
100
AcDbEntity
  8
6u-bottom-row
 62
256
370
-1
 48
1.0
  6
BYLAYER
100
AcDbLine
 10
135.6881334000000265
 20
15.7650371000000025
 30
0.0
 11
134.8881333999999868
 21
15.7650371000000007
 31
0.0
  0
LINE
  5
2B0
100
AcDbEntity
  8
layer 1
 62
256
370
-1
 48
1.0
  6
BYLAYER
100
AcDbLine
 10
131.4391334000001166
 20
2.9658870999998612
 30
0.0
 11
131.4391334000000597
 21
7.0654870999998991
 31
0.0
  0
LINE
  5
2B1
100
AcDbEntity
  8
6u-bottom-row
 62
256
370
-1
 48
1.0
  6
BYLAYER
100
AcDbLine
 10
134.8881333999999868
 20
15.7650371000000007
 30
0.0
 11
134.8881334000000152
 21
11.6654371000000054
 31
0.0
  0
LINE
  5
2B2
100
AcDbEntity
  8
layer 1
 62
256
370
-1
 48
1.0
  6
BYLAYER
100
AcDbLine
 10
131.4391334000000597
 20
7.0654870999998991
 30
0.0
 11
177.2881334000000209
 21
7.0654870999998991
 31
0.0
  0
LINE
  5
2B3
100
AcDbEntity
  8
layer 1
 62
256
370
-1
 48
1.0
  6
BYLAYER
100
AcDbLine
 10
177.2881334000000209
 20
7.0654870999998991
 30
0.0
 11
177.2881334000000493
 21
3.8353870999998918
 31
0.0
  0
LINE
  5
2B4
100
AcDbEntity
  8
6u-bottom-row
 62
256
370
-1
 48
1.0
  6
BYLAYER
100
AcDbLine
 10
89.0391334000000398
 20
11.6654371000000037
 30
0.0
 11
89.0391334000000398
 21
14.8955370999999968
 31
0.0
  0
LINE
  5
2B5
100
AcDbEntity
  8
layer 1
 62
256
370
-1
 48
1.0
  6
BYLAYER
100
AcDbLine
 10
177.2881334000000493
 20
3.8353870999998918
 30
0.0
 11
179.013133400000072
 21
3.8353870999998776
 31
0.0
  0
LINE
  5
2B6
100
AcDbEntity
  8
6u-bottom-row
 62
256
370
-1
 48
1.0
  6
BYLAYER
100
AcDbLine
 10
89.0391334000000398
 20
14.8955370999999968
 30
0.0
 11
87.3141334000000171
 21
14.8955371000000003
 31
0.0
  0
LINE
  5
2B7
100
AcDbEntity
  8
layer 1
 62
256
370
-1
 48
1.0
  6
BYLAYER
100
AcDbLine
 10
179.013133400000072
 20
3.8353870999998776
 30
0.0
 11
179.013133400000072
 21
2.9148870999998735
 31
0.0
  0
LINE
  5
2B8
100
AcDbEntity
  8
6u-bottom-row
 62
256
370
-1
 48
1.0
  6
BYLAYER
100
AcDbLine
 10
87.3141334000000171
 20
14.8955371000000003
 30
0.0
 11
87.3141334000000171
 21
15.8160371000000026
 31
0.0
  0
LINE
  5
2B9
100
AcDbEntity
  8
layer 1
 62
256
370
-1
 48
1.0
  6
BYLAYER
100
AcDbLine
 10
179.013133400000072
 20
2.9148870999998735
 30
0.0
 11
182.3141334000000597
 21
2.9148870999998735
 31
0.0
  0
LINE
  5
2BA
100
AcDbEntity
  8
6u-bottom-row
 62
256
370
-1
 48
1.0
  6
BYLAYER
100
AcDbLine
 10
87.3141334000000171
 20
15.8160371000000026
 30
0.0
 11
84.0131334000000294
 21
15.8160371000000026
 31
0.0
  0
LINE
  5
2BB
100
AcDbEntity
  8
6u-bottom-row
 62
256
370
-1
 48
1.0
  6
BYLAYER
100
AcDbLine
 10
197.6011334000000659
 20
16.3658370999999931
 30
0.0
 11
211.6001334000000895
 21
16.3658370999999931
 31
0.0
  0
LINE
  5
2BC
100
AcDbEntity
  8
6u-bottom-row
 62
256
370
-1
 48
1.0
  6
BYLAYER
100
AcDbLine
 10
211.6001334000000895
 20
16.3658370999999931
 30
0.0
 11
211.6001334000000611
 21
15.7650370999999989
 31
0.0
  0
LINE
  5
2BD
100
AcDbEntity
  8
6u-bottom-row
 62
256
370
-1
 48
1.0
  6
BYLAYER
100
AcDbLine
 10
211.6001334000000611
 20
15.7650370999999989
 30
0.0
 11
212.4011334000000488
 21
15.7650370999999989
 31
0.0
  0
LINE
  5
2BE
100
AcDbEntity
  8
6u-bottom-row
 62
256
370
-1
 48
1.0
  6
BYLAYER
100
AcDbLine
 10
212.4011334000000488
 20
15.7650370999999989
 30
0.0
 11
212.4011334000000488
 21
2.9658270999999981
 31
0.0
  0
LINE
  5
2BF
100
AcDbEntity
  8
6u-bottom-row
 62
256
370
-1
 48
1.0
  6
BYLAYER
100
AcDbLine
 10
212.4011334000000488
 20
2.9658270999999981
 30
0.0
 11
211.6001334000000327
 21
2.9658270999999985
 31
0.0
  0
LINE
  5
2C0
100
AcDbEntity
  8
6u-bottom-row
 62
256
370
-1
 48
1.0
  6
BYLAYER
100
AcDbLine
 10
211.6001334000000327
 20
2.9658270999999985
 30
0.0
 11
211.6001334000000611
 21
2.3649970999999965
 31
0.0
  0
LINE
  5
2C1
100
AcDbEntity
  8
6u-bottom-row
 62
256
370
-1
 48
1.0
  6
BYLAYER
100
AcDbLine
 10
211.6001334000000611
 20
2.3649970999999965
 30
0.0
 11
197.6011334000000375
 21
2.3649970999999965
 31
0.0
  0
LINE
  5
2C2
100
AcDbEntity
  8
6u-bottom-row
 62
256
370
-1
 48
1.0
  6
BYLAYER
100
AcDbLine
 10
197.6011334000000375
 20
2.3649970999999965
 30
0.0
 11
197.6011334000000375
 21
2.9658270999999985
 31
0.0
  0
LINE
  5
2C3
100
AcDbEntity
  8
6u-bottom-row
 62
256
370
-1
 48
1.0
  6
BYLAYER
100
AcDbLine
 10
197.6011334000000375
 20
2.9658270999999985
 30
0.0
 11
196.8021334000000024
 21
2.9658270999999985
 31
0.0
  0
LINE
  5
2C4
100
AcDbEntity
  8
6u-bottom-row
 62
256
370
-1
 48
1.0
  6
BYLAYER
100
AcDbLine
 10
196.8021334000000024
 20
2.9658270999999985
 30
0.0
 11
196.8021334000000024
 21
15.7650371000000007
 31
0.0
  0
LINE
  5
2C5
100
AcDbEntity
  8
6u-bottom-row
 62
256
370
-1
 48
1.0
  6
BYLAYER
100
AcDbLine
 10
196.8021334000000024
 20
15.7650371000000007
 30
0.0
 11
197.6011334000000659
 21
15.7650371000000007
 31
0.0
  0
LINE
  5
2C6
100
AcDbEntity
  8
6u-bottom-row
 62
256
370
-1
 48
1.0
  6
BYLAYER
100
AcDbLine
 10
197.6011334000000659
 20
15.7650371000000007
 30
0.0
 11
197.6011334000000659
 21
16.3658370999999931
 31
0.0
  0
LINE
  5
2C7
100
AcDbEntity
  8
6u-bottom-row
 62
256
370
-1
 48
1.0
  6
BYLAYER
100
AcDbLine
 10
221.4121333999999592
 20
16.3658370999999931
 30
0.0
 11
235.4131334000000493
 21
16.3658370999999931
 31
0.0
  0
LINE
  5
2C8
100
AcDbEntity
  8
6u-bottom-row
 62
256
370
-1
 48
1.0
  6
BYLAYER
100
AcDbLine
 10
235.4131334000000493
 20
16.3658370999999931
 30
0.0
 11
235.4131334000000777
 21
15.7650371000000025
 31
0.0
  0
LINE
  5
2C9
100
AcDbEntity
  8
6u-bottom-row
 62
256
370
-1
 48
1.0
  6
BYLAYER
100
AcDbLine
 10
235.4131334000000777
 20
15.7650371000000025
 30
0.0
 11
236.2121334000000275
 21
15.7650371000000007
 31
0.0
  0
LINE
  5
2CA
100
AcDbEntity
  8
6u-bottom-row
 62
256
370
-1
 48
1.0
  6
BYLAYER
100
AcDbLine
 10
236.2121334000000275
 20
15.7650371000000007
 30
0.0
 11
236.2121334000000275
 21
2.9658270999999981
 31
0.0
  0
LINE
  5
2CB
100
AcDbEntity
  8
6u-bottom-row
 62
256
370
-1
 48
1.0
  6
BYLAYER
100
AcDbLine
 10
236.2121334000000275
 20
2.9658270999999981
 30
0.0
 11
235.4131334000000493
 21
2.9658270999999985
 31
0.0
  0
LINE
  5
2CC
100
AcDbEntity
  8
6u-bottom-row
 62
256
370
-1
 48
1.0
  6
BYLAYER
100
AcDbLine
 10
235.4131334000000493
 20
2.9658270999999985
 30
0.0
 11
235.4131334000000209
 21
2.3649970999999965
 31
0.0
  0
LINE
  5
2CD
100
AcDbEntity
  8
6u-bottom-row
 62
256
370
-1
 48
1.0
  6
BYLAYER
100
AcDbLine
 10
235.4131334000000209
 20
2.3649970999999965
 30
0.0
 11
221.4121333999999308
 21
2.3649970999999965
 31
0.0
  0
LINE
  5
2CE
100
AcDbEntity
  8
6u-bottom-row
 62
256
370
-1
 48
1.0
  6
BYLAYER
100
AcDbLine
 10
221.4121333999999308
 20
2.3649970999999965
 30
0.0
 11
221.4121333999999877
 21
2.9658270999999985
 31
0.0
  0
LINE
  5
2CF
100
AcDbEntity
  8
6u-bottom-row
 62
256
370
-1
 48
1.0
  6
BYLAYER
100
AcDbLine
 10
221.4121333999999877
 20
2.9658270999999985
 30
0.0
 11
220.6131333999999811
 21
2.9658270999999981
 31
0.0
  0
LINE
  5
2D0
100
AcDbEntity
  8
6u-bottom-row
 62
256
370
-1
 48
1.0
  6
BYLAYER
100
AcDbLine
 10
220.6131333999999811
 20
2.9658270999999981
 30
0.0
 11
220.6131333999999811
 21
15.7650371000000007
 31
0.0
  0
LINE
  5
2D1
100
AcDbEntity
  8
6u-bottom-row
 62
256
370
-1
 48
1.0
  6
BYLAYER
100
AcDbLine
 10
220.6131333999999811
 20
15.7650371000000007
 30
0.0
 11
221.4121333999999592
 21
15.7650371000000025
 31
0.0
  0
LINE
  5
2D2
100
AcDbEntity
  8
6u-bottom-row
 62
256
370
-1
 48
1.0
  6
BYLAYER
100
AcDbLine
 10
221.4121333999999592
 20
15.7650371000000025
 30
0.0
 11
221.4121333999999592
 21
16.3658370999999931
 31
0.0
  0
ARC
  5
2D3
100
AcDbEntity
  8
6.25u-bottom-row
 62
256
370
-1
 48
1.0
  6
BYLAYER
100
AcDbCircle
 10
190.7043620531452461
 20
9.5687920974129828
 30
0.0
 40
2.4839343073223157
100
AcDbArc
 50
224.0519143659973338
 51
122.4864290405175069
  0
LINE
  5
2D4
100
AcDbEntity
  8
6.25u-bottom-row
 62
256
370
-1
 48
1.0
  6
BYLAYER
100
AcDbLine
 10
189.3702413606191612
 20
11.6640371000001526
 30
0.0
 11
188.9191334000000211
 21
11.6640371000000016
 31
0.0
  0
LINE
  5
2D5
100
AcDbEntity
  8
6.25u-bottom-row
 62
256
370
-1
 48
1.0
  6
BYLAYER
100
AcDbLine
 10
188.9191334000000211
 20
2.5951371000000023
 30
0.0
 11
188.9191334000000211
 21
7.8416880764930861
 31
0.0
  0
CIRCLE
  5
2D6
100
AcDbEntity
  8
6u-bottom-row
 62
256
370
-1
 48
1.0
  6
BYLAYER
100
AcDbCircle
 10
190.6892933999999968
 20
9.5649570999999618
 30
0.0
 40
2.4990000000000521
  0
ARC
  5
2D7
100
AcDbEntity
  8
7u-bottom-row
 62
256
370
-1
 48
1.0
  6
BYLAYER
100
AcDbCircle
 10
190.668637901400956
 20
9.7633912487191292
 30
0.0
 40
2.301438545090897
100
AcDbArc
 50
63.3720014708906234
 51
124.2676748554688828
  0
LINE
  5
2D8
100
AcDbEntity
  8
7u-bottom-row
 62
256
370
-1
 48
1.0
  6
BYLAYER
100
AcDbLine
 10
191.700133400000027
 20
14.895437099999981
 30
0.0
 11
191.700133400000027
 21
11.8207284629834888
 31
0.0
  0
LINE
  5
2D9
100
AcDbEntity
  8
7u-bottom-row
 62
256
370
-1
 48
1.0
  6
BYLAYER
100
AcDbLine
 10
189.3727901651195964
 20
11.6653371000000146
 30
0.0
 11
145.7261334000000375
 21
11.6653371000000146
 31
0.0
  0
LINE
  5
2DA
100
AcDbEntity
  8
6u-bottom-row
 62
256
370
-1
 48
1.0
  6
BYLAYER
100
AcDbLine
 10
131.4391334000000597
 20
11.6654371000000072
 30
0.0
 11
131.4391334000000597
 21
15.7650970999999327
 31
0.0
  0
LINE
  5
2DB
100
AcDbEntity
  8
6u-bottom-row
 62
256
370
-1
 48
1.0
  6
BYLAYER
100
AcDbLine
 10
131.4391334000000597
 20
15.7650970999999327
 30
0.0
 11
130.6391334000000484
 21
15.7650970999998474
 31
0.0
  0
LINE
  5
2DC
100
AcDbEntity
  8
6u-bottom-row
 62
256
370
-1
 48
1.0
  6
BYLAYER
100
AcDbLine
 10
130.6391334000000484
 20
15.7650970999998474
 30
0.0
 11
130.6391334000000768
 21
16.3659270999998228
 31
0.0
  0
LINE
  5
2DD
100
AcDbEntity
  8
6u-bottom-row
 62
256
370
-1
 48
1.0
  6
BYLAYER
100
AcDbLine
 10
130.6391334000000768
 20
16.3659270999998228
 30
0.0
 11
116.6391334000000626
 21
16.365927099999837
 31
0.0
  0
LINE
  5
2DE
100
AcDbEntity
  8
6u-bottom-row
 62
256
370
-1
 48
1.0
  6
BYLAYER
100
AcDbLine
 10
116.6391334000000626
 20
16.365927099999837
 30
0.0
 11
116.6391334000000768
 21
15.765097099999922
 31
0.0
  0
LINE
  5
2DF
100
AcDbEntity
  8
6u-bottom-row
 62
256
370
-1
 48
1.0
  6
BYLAYER
100
AcDbLine
 10
116.6391334000000768
 20
15.765097099999922
 30
0.0
 11
115.8401334000000986
 21
15.7650970999998918
 31
0.0
  0
LINE
  5
2E0
100
AcDbEntity
  8
6u-bottom-row
 62
256
370
-1
 48
1.0
  6
BYLAYER
100
AcDbLine
 10
115.8401334000000986
 20
15.7650970999998918
 30
0.0
 11
115.8401334000000986
 21
11.6654371000000037
 31
0.0
  0
LINE
  5
2E1
100
AcDbEntity
  8
6u-bottom-row
 62
256
370
-1
 48
1.0
  6
BYLAYER
100
AcDbLine
 10
115.8401334000000986
 20
11.6654371000000037
 30
0.0
 11
89.0391334000000398
 21
11.6654371000000054
 31
0.0
  0
LINE
  5
2E2
100
AcDbEntity
  8
6u-bottom-row
 62
256
370
-1
 48
1.0
  6
BYLAYER
100
AcDbLine
 10
89.0391334000000541
 20
7.0654870999999995
 30
0.0
 11
115.8401334000001128
 21
7.0654870999999986
 31
0.0
  0
LINE
  5
2E3
100
AcDbEntity
  8
6u-bottom-row
 62
256
370
-1
 48
1.0
  6
BYLAYER
100
AcDbLine
 10
115.8401334000001128
 20
7.0654870999999986
 30
0.0
 11
115.840133400000056
 21
2.9658870999999034
 31
0.0
  0
LINE
  5
2E4
100
AcDbEntity
  8
6u-bottom-row
 62
256
370
-1
 48
1.0
  6
BYLAYER
100
AcDbLine
 10
115.840133400000056
 20
2.9658870999999034
 30
0.0
 11
116.6391334000000484
 21
2.9658870999999039
 31
0.0
  0
LINE
  5
2E5
100
AcDbEntity
  8
6u-bottom-row
 62
256
370
-1
 48
1.0
  6
BYLAYER
100
AcDbLine
 10
116.6391334000000484
 20
2.9658870999999039
 30
0.0
 11
116.6391334000000484
 21
2.3650870999998972
 31
0.0
  0
LINE
  5
2E6
100
AcDbEntity
  8
6u-bottom-row
 62
256
370
-1
 48
1.0
  6
BYLAYER
100
AcDbLine
 10
116.6391334000000484
 20
2.3650870999998972
 30
0.0
 11
130.6391334000000484
 21
2.3650870999999118
 31
0.0
  0
LINE
  5
2E7
100
AcDbEntity
  8
6u-bottom-row
 62
256
370
-1
 48
1.0
  6
BYLAYER
100
AcDbLine
 10
130.6391334000000484
 20
2.3650870999999118
 30
0.0
 11
130.6391334000000484
 21
2.9658870999998612
 31
0.0
  0
LINE
  5
2E8
100
AcDbEntity
  8
6u-bottom-row
 62
256
370
-1
 48
1.0
  6
BYLAYER
100
AcDbLine
 10
130.6391334000000484
 20
2.9658870999998612
 30
0.0
 11
131.4391334000001166
 21
2.9658870999998612
 31
0.0
  0
LINE
  5
2E9
100
AcDbEntity
  8
6u-bottom-row
 62
256
370
-1
 48
1.0
  6
BYLAYER
100
AcDbLine
 10
131.4391334000001166
 20
2.9658870999998612
 30
0.0
 11
131.4391334000000597
 21
7.0654870999999
 31
0.0
  0
LINE
  5
2EA
100
AcDbEntity
  8
6u-bottom-row
 62
256
370
-1
 48
1.0
  6
BYLAYER
100
AcDbLine
 10
131.4391334000000597
 20
7.0654870999999
 30
0.0
 11
134.8881334000000436
 21
7.0654870999998991
 31
0.0
  0
LINE
  5
2EB
100
AcDbEntity
  8
6u-bottom-row
 62
256
370
-1
 48
1.0
  6
BYLAYER
100
AcDbLine
 10
131.4391334000000597
 20
11.6654371000000072
 30
0.0
 11
134.8881334000000152
 21
11.6654370999999024
 31
0.0
  0
ENDSEC
  0
SECTION
  2
OBJECTS
  0
DICTIONARY
  5
C
100
AcDbDictionary
280
0
281
1
  3
ACAD_GROUP
350
D
  3
ACAD_LAYOUT
350
1A
  3
ACAD_MLINESTYLE
350
17
  3
ACAD_PLOTSETTINGS
350
19
  3
ACAD_PLOTSTYLENAME
350
E
  3
AcDbVariableDictionary
350
2EC
  3
QCAD_OBJECTS
350
2ED
  0
DICTIONARY
  5
D
100
AcDbDictionary
280
0
281
1
  0
ACDBDICTIONARYWDFLT
  5
E
100
AcDbDictionary
281
1
  3
Normal
350
F
100
AcDbDictionaryWithDefault
340
F
  0
ACDBPLACEHOLDER
  5
F
  0
DICTIONARY
  5
17
100
AcDbDictionary
280
0
281
1
  3
Standard
350
18
  0
MLINESTYLE
  5
18
100
AcDbMlineStyle
  2
STANDARD
 70
0
  3

 62
256
 51
90.0
 52
90.0
 71
2
 49
0.5
 62
256
  6
BYLAYER
 49
-0.5
 62
256
  6
BYLAYER
  0
DICTIONARY
  5
19
100
AcDbDictionary
280
0
281
1
  0
DICTIONARY
  5
1A
100
AcDbDictionary
281
1
  3
Layout1
350
1E
  3
Layout2
350
26
  3
Model
350
22
  0
LAYOUT
  5
1E
100
AcDbPlotSettings
  1

  2
none_device
  4

  6

 40
0.0
 41
0.0
 42
0.0
 43
0.0
 44
0.0
 45
0.0
 46
0.0
 47
0.0
 48
0.0
 49
0.0
140
0.0
141
0.0
142
1.0
143
1.0
 70
688
 72
0
 73
0
 74
5
  7

 75
16
147
1.0
148
0.0
149
0.0
100
AcDbLayout
  1
Layout1
 70
1
 71
1
 10
0.0
 20
0.0
 11
420.0
 21
297.0
 12
0.0
 22
0.0
 32
0.0
 14
100000000000000000000.0
 24
100000000000000000000.0
 34
100000000000000000000.0
 15
-100000000000000000000.0
 25
-100000000000000000000.0
 35
-100000000000000000000.0
146
0.0
 13
0.0
 23
0.0
 33
0.0
 16
1.0
 26
0.0
 36
0.0
 17
0.0
 27
1.0
 37
0.0
 76
0
330
1B
  0
LAYOUT
  5
22
100
AcDbPlotSettings
  1

  2
none_device
  4

  6

 40
0.0
 41
0.0
 42
0.0
 43
0.0
 44
0.0
 45
0.0
 46
0.0
 47
0.0
 48
0.0
 49
0.0
140
0.0
141
0.0
142
1.0
143
1.0
 70
1712
 72
0
 73
0
 74
0
  7

 75
0
147
1.0
148
0.0
149
0.0
100
AcDbLayout
  1
Model
 70
1
 71
0
 10
0.0
 20
0.0
 11
12.0
 21
9.0
 12
0.0
 22
0.0
 32
0.0
 14
0.0
 24
0.0
 34
0.0
 15
0.0
 25
0.0
 35
0.0
146
0.0
 13
0.0
 23
0.0
 33
0.0
 16
1.0
 26
0.0
 36
0.0
 17
0.0
 27
1.0
 37
0.0
 76
0
330
1F
  0
LAYOUT
  5
26
100
AcDbPlotSettings
  1

  2
none_device
  4

  6

 40
0.0
 41
0.0
 42
0.0
 43
0.0
 44
0.0
 45
0.0
 46
0.0
 47
0.0
 48
0.0
 49
0.0
140
0.0
141
0.0
142
1.0
143
1.0
 70
688
 72
0
 73
0
 74
5
  7

 75
16
147
1.0
148
0.0
149
0.0
100
AcDbLayout
  1
Layout2
 70
1
 71
2
 10
0.0
 20
0.0
 11
12.0
 21
9.0
 12
0.0
 22
0.0
 32
0.0
 14
0.0
 24
0.0
 34
0.0
 15
0.0
 25
0.0
 35
0.0
146
0.0
 13
0.0
 23
0.0
 33
0.0
 16
1.0
 26
0.0
 36
0.0
 17
0.0
 27
1.0
 37
0.0
 76
0
330
23
  0
DICTIONARY
  5
2EC
100
AcDbDictionary
281
1
  3
DIMASSOC
350
2EF
  3
HIDETEXT
350
2EE
  0
DICTIONARYVAR
  5
2EE
100
DictionaryVariables
280
0
  1
2
  0
DICTIONARYVAR
  5
2EF
100
DictionaryVariables
280
0
  1
1
  0
DICTIONARY
  5
2ED
100
AcDbDictionary
281
1
  3
ColorSettings/BackgroundColor
350
2F0
  3
ColorSettings/ColorMode
350
2F1
  3
Grid/DisplayGrid00
350
2F2
  3
Grid/DisplayGrid01
350
2F3
  3
Grid/DisplayGrid02
350
2F4
  3
Grid/DisplayGrid03
350
2F5
  3
Grid/GridSpacingX00
350
2F6
  3
Grid/GridSpacingX01
350
2F7
  3
Grid/GridSpacingX02
350
2F8
  3
Grid/GridSpacingX03
350
2F9
  3
Grid/GridSpacingY00
350
2FA
  3
Grid/GridSpacingY01
350
2FB
  3
Grid/GridSpacingY02
350
2FC
  3
Grid/GridSpacingY03
350
2FD
  3
Grid/IsometricGrid00
350
2FE
  3
Grid/IsometricGrid01
350
2FF
  3
Grid/IsometricGrid02
350
300
  3
Grid/IsometricGrid03
350
301
  3
Grid/IsometricProjection00
350
302
  3
Grid/IsometricProjection01
350
303
  3
Grid/IsometricProjection02
350
304
  3
Grid/IsometricProjection03
350
305
  3
Grid/MetaGridSpacingX00
350
306
  3
Grid/MetaGridSpacingX01
350
307
  3
Grid/MetaGridSpacingX02
350
308
  3
Grid/MetaGridSpacingX03
350
309
  3
Grid/MetaGridSpacingY00
350
30A
  3
Grid/MetaGridSpacingY01
350
30B
  3
Grid/MetaGridSpacingY02
350
30C
  3
Grid/MetaGridSpacingY03
350
30D
  3
MultiPageSettings/Columns
350
30E
  3
MultiPageSettings/GlueMarginsBottom
350
30F
  3
MultiPageSettings/GlueMarginsLeft
350
310
  3
MultiPageSettings/GlueMarginsRight
350
311
  3
MultiPageSettings/GlueMarginsTop
350
312
  3
MultiPageSettings/PrintCropMarks
350
313
  3
MultiPageSettings/Rows
350
314
  3
PageSettings/OffsetX
350
315
  3
PageSettings/OffsetY
350
316
  3
PageSettings/PageOrientation
350
317
  3
PageSettings/PaperHeight
350
318
  3
PageSettings/PaperWidth
350
319
  3
PageSettings/Scale
350
31A
  3
PageSettings/ShowPaperBorders
350
31B
  3
QCADVersion
350
31C
  3
UnitSettings/PaperUnit
350
31D
  3
ViewportCenter
350
31E
  3
ViewportHeight
350
31F
  3
ViewportWidth
350
320
  0
XRECORD
  5
2F0
330
2ED
100
AcDbXrecord
280
1
1000
White
  0
XRECORD
  5
2F1
330
2ED
100
AcDbXrecord
280
1
1000
FullColor
  0
XRECORD
  5
2F2
330
2ED
100
AcDbXrecord
280
1
290
1
  0
XRECORD
  5
2F3
330
2ED
100
AcDbXrecord
280
1
290
1
  0
XRECORD
  5
2F4
330
2ED
100
AcDbXrecord
280
1
290
1
  0
XRECORD
  5
2F5
330
2ED
100
AcDbXrecord
280
1
290
1
  0
XRECORD
  5
2F6
330
2ED
100
AcDbXrecord
280
1
1000
auto
  0
XRECORD
  5
2F7
330
2ED
100
AcDbXrecord
280
1
1000
auto
  0
XRECORD
  5
2F8
330
2ED
100
AcDbXrecord
280
1
1000
auto
  0
XRECORD
  5
2F9
330
2ED
100
AcDbXrecord
280
1
1000
auto
  0
XRECORD
  5
2FA
330
2ED
100
AcDbXrecord
280
1
1000
auto
  0
XRECORD
  5
2FB
330
2ED
100
AcDbXrecord
280
1
1000
auto
  0
XRECORD
  5
2FC
330
2ED
100
AcDbXrecord
280
1
1000
auto
  0
XRECORD
  5
2FD
330
2ED
100
AcDbXrecord
280
1
1000
auto
  0
XRECORD
  5
2FE
330
2ED
100
AcDbXrecord
280
1
290
0
  0
XRECORD
  5
2FF
330
2ED
100
AcDbXrecord
280
1
290
0
  0
XRECORD
  5
300
330
2ED
100
AcDbXrecord
280
1
290
0
  0
XRECORD
  5
301
330
2ED
100
AcDbXrecord
280
1
290
0
  0
XRECORD
  5
302
330
2ED
100
AcDbXrecord
280
1
 90
4097
  0
XRECORD
  5
303
330
2ED
100
AcDbXrecord
280
1
 90
4097
  0
XRECORD
  5
304
330
2ED
100
AcDbXrecord
280
1
 90
4097
  0
XRECORD
  5
305
330
2ED
100
AcDbXrecord
280
1
 90
4097
  0
XRECORD
  5
306
330
2ED
100
AcDbXrecord
280
1
1000
auto
  0
XRECORD
  5
307
330
2ED
100
AcDbXrecord
280
1
1000
auto
  0
XRECORD
  5
308
330
2ED
100
AcDbXrecord
280
1
1000
auto
  0
XRECORD
  5
309
330
2ED
100
AcDbXrecord
280
1
1000
auto
  0
XRECORD
  5
30A
330
2ED
100
AcDbXrecord
280
1
1000
auto
  0
XRECORD
  5
30B
330
2ED
100
AcDbXrecord
280
1
1000
auto
  0
XRECORD
  5
30C
330
2ED
100
AcDbXrecord
280
1
1000
auto
  0
XRECORD
  5
30D
330
2ED
100
AcDbXrecord
280
1
1000
auto
  0
XRECORD
  5
30E
330
2ED
100
AcDbXrecord
280
1
 90
1
  0
XRECORD
  5
30F
330
2ED
100
AcDbXrecord
280
1
 40
0.5
  0
XRECORD
  5
310
330
2ED
100
AcDbXrecord
280
1
 40
0.5
  0
XRECORD
  5
311
330
2ED
100
AcDbXrecord
280
1
 40
0.5
  0
XRECORD
  5
312
330
2ED
100
AcDbXrecord
280
1
 40
0.5
  0
XRECORD
  5
313
330
2ED
100
AcDbXrecord
280
1
290
0
  0
XRECORD
  5
314
330
2ED
100
AcDbXrecord
280
1
 90
1
  0
XRECORD
  5
315
330
2ED
100
AcDbXrecord
280
1
 40
0.0
  0
XRECORD
  5
316
330
2ED
100
AcDbXrecord
280
1
 40
0.0
  0
XRECORD
  5
317
330
2ED
100
AcDbXrecord
280
1
1000
Portrait
  0
XRECORD
  5
318
330
2ED
100
AcDbXrecord
280
1
 40
11.6929133858268006
  0
XRECORD
  5
319
330
2ED
100
AcDbXrecord
280
1
 40
8.2677165354330704
  0
XRECORD
  5
31A
330
2ED
100
AcDbXrecord
280
1
1000
1:1
  0
XRECORD
  5
31B
330
2ED
100
AcDbXrecord
280
1
290
1
  0
XRECORD
  5
31C
330
2ED
100
AcDbXrecord
280
1
1000
3.16.7
  0
XRECORD
  5
31D
330
2ED
100
AcDbXrecord
280
1
 90
1
  0
XRECORD
  5
31F
330
2ED
100
AcDbXrecord
280
1
 40
127.2372438225337277
  0
XRECORD
  5
320
330
2ED
100
AcDbXrecord
280
1
 40
350.6782573645442085
  0
ENDSEC
  0
EOF
