999
dxflib 3.17.0.0
  0
SECTION
  2
HEADER
  9
$ACADVER
  1
AC1015
  9
$HANDSEED
  5
FFFF
  9
$DIMADEC
 70
0
  9
$DIMASZ
 40
0.18
  9
$DIMAUNIT
 70
0
  9
$DIMAZIN
 70
0
  9
$DIMDEC
 70
4
  9
$DIMDSEP
 70
46
  9
$DIMEXE
 40
0.18
  9
$DIMEXO
 40
0.0625
  9
$DIMGAP
 40
0.09
  9
$DIMLUNIT
 70
2
  9
$DIMSCALE
 40
1.0
  9
$DIMTSZ
 40
0.0
  9
$DIMTXT
 40
0.18
  9
$DIMZIN
 70
0
  9
$DWGCODEPAGE
  3
ANSI_1252
  9
$EXTMAX
 10
1000.0
 20
1000.0
 30
0.0
  9
$EXTMIN
 10
0.0
 20
0.0
 30
0.0
  9
$FILLMODE
 70
0
  9
$INSUNITS
 70
0
  9
$LTSCALE
 40
1.0
  9
$MAXACTVP
 70
64
  9
$MEASUREMENT
 70
1
  9
$PDMODE
 70
0
  9
$PDSIZE
 40
0.0
  9
$SPLFRAME
 70
1
  0
ENDSEC
  0
SECTION
  2
TABLES
  0
TABLE
  2
VPORT
  5
8
100
AcDbSymbolTable
 70
1
  0
VPORT
  5
30
100
AcDbSymbolTableRecord
100
AcDbViewportTableRecord
  2
*Active
 70
0
 10
0.0
 20
0.0
 11
1.0
 21
1.0
 12
286.3055555555554861
 22
148.5
 13
0.0
 23
0.0
 14
10.0
 24
10.0
 15
10.0
 25
10.0
 16
0.0
 26
0.0
 36
1.0
 17
0.0
 27
0.0
 37
0.0
 40
297.0
 41
1.92798353909465
 42
50.0
 43
0.0
 44
0.0
 50
0.0
 51
0.0
 71
0
 72
100
 73
1
 74
3
 75
1
 76
1
 77
0
 78
0
281
0
 65
1
110
0.0
120
0.0
130
0.0
111
1.0
121
0.0
131
0.0
112
0.0
122
1.0
132
0.0
 79
0
146
0.0
  0
ENDTAB
  0
TABLE
  2
LTYPE
  5
5
100
AcDbSymbolTable
 70
41
  0
LTYPE
  5
16
100
AcDbSymbolTableRecord
100
AcDbLinetypeTableRecord
  2
Continuous
 70
0
  3
Solid line
 72
65
 73
0
 40
0.0
  0
LTYPE
  5
31
100
AcDbSymbolTableRecord
100
AcDbLinetypeTableRecord
  2
ACAD_ISO15W100
 70
0
  3
ISO double-dash triple-dot __ __ . . . __ __ . .
 72
65
 73
10
 40
39.0
 49
12.0
 74
0
 49
-3.0
 74
0
 49
12.0
 74
0
 49
-3.0
 74
0
 49
0.0
 74
0
 49
-3.0
 74
0
 49
0.0
 74
0
 49
-3.0
 74
0
 49
0.0
 74
0
 49
-3.0
 74
0
  0
LTYPE
  5
32
100
AcDbSymbolTableRecord
100
AcDbLinetypeTableRecord
  2
DIVIDE
 70
0
  3
Divide ____ . . ____ . . ____ . . ____ . . ____
 72
65
 73
6
 40
31.75
 49
12.6999999999999993
 74
0
 49
-6.3499999999999996
 74
0
 49
0.0
 74
0
 49
-6.3499999999999996
 74
0
 49
0.0
 74
0
 49
-6.3499999999999996
 74
0
  0
LTYPE
  5
33
100
AcDbSymbolTableRecord
100
AcDbLinetypeTableRecord
  2
ACAD_ISO10W100
 70
0
  3
ISO dash dot __ . __ . __ . __ . __ . __ . __ . 
 72
65
 73
4
 40
18.0
 49
12.0
 74
0
 49
-3.0
 74
0
 49
0.0
 74
0
 49
-3.0
 74
0
  0
LTYPE
  5
34
100
AcDbSymbolTableRecord
100
AcDbLinetypeTableRecord
  2
ACAD_ISO04W100
 70
0
  3
ISO long-dash dot ____ . ____ . ____ . ____ . _
 72
65
 73
4
 40
30.0
 49
24.0
 74
0
 49
-3.0
 74
0
 49
0.0
 74
0
 49
-3.0
 74
0
  0
LTYPE
  5
35
100
AcDbSymbolTableRecord
100
AcDbLinetypeTableRecord
  2
CENTER2
 70
0
  3
Center (.5x) ___ _ ___ _ ___ _ ___ _ ___ _ ___
 72
65
 73
4
 40
28.5750000000000028
 49
19.0500000000000007
 74
0
 49
-3.1749999999999998
 74
0
 49
3.1749999999999998
 74
0
 49
-3.1749999999999998
 74
0
  0
LTYPE
  5
36
100
AcDbSymbolTableRecord
100
AcDbLinetypeTableRecord
  2
ACAD_ISO11W100
 70
0
  3
ISO double-dash dot __ __ . __ __ . __ __ . __ _
 72
65
 73
6
 40
33.0
 49
12.0
 74
0
 49
-3.0
 74
0
 49
12.0
 74
0
 49
-3.0
 74
0
 49
0.0
 74
0
 49
-3.0
 74
0
  0
LTYPE
  5
37
100
AcDbSymbolTableRecord
100
AcDbLinetypeTableRecord
  2
HIDDEN2
 70
0
  3
Hidden (.5x) _ _ _ _ _ _ _ _ _ _ _ _ _ _ _ _ _ 
 72
65
 73
2
 40
4.7624999999999993
 49
3.1749999999999998
 74
0
 49
-1.5874999999999999
 74
0
  0
LTYPE
  5
38
100
AcDbSymbolTableRecord
100
AcDbLinetypeTableRecord
  2
BORDERX2
 70
0
  3
Border (2x) ____  ____  .  ____  ____  .  ___
 72
65
 73
6
 40
88.8999999999999915
 49
25.3999999999999986
 74
0
 49
-12.6999999999999993
 74
0
 49
25.3999999999999986
 74
0
 49
-12.6999999999999993
 74
0
 49
0.0
 74
0
 49
-12.6999999999999993
 74
0
  0
LTYPE
  5
39
100
AcDbSymbolTableRecord
100
AcDbLinetypeTableRecord
  2
ACAD_ISO05W100
 70
0
  3
ISO long-dash double-dot ____ .. ____ .. ____ . 
 72
65
 73
6
 40
33.0
 49
24.0
 74
0
 49
-3.0
 74
0
 49
0.0
 74
0
 49
-3.0
 74
0
 49
0.0
 74
0
 49
-3.0
 74
0
  0
LTYPE
  5
3A
100
AcDbSymbolTableRecord
100
AcDbLinetypeTableRecord
  2
DASHDOTX2
 70
0
  3
Dash dot (2x) ____  .  ____  .  ____  .  ___
 72
65
 73
4
 40
50.7999999999999972
 49
25.3999999999999986
 74
0
 49
-12.6999999999999993
 74
0
 49
0.0
 74
0
 49
-12.6999999999999993
 74
0
  0
LTYPE
  5
3B
100
AcDbSymbolTableRecord
100
AcDbLinetypeTableRecord
  2
HIDDENX2
 70
0
  3
Hidden (2x) ____ ____ ____ ____ ____ ____ ____ 
 72
65
 73
2
 40
19.0499999999999972
 49
12.6999999999999993
 74
0
 49
-6.3499999999999996
 74
0
  0
LTYPE
  5
3C
100
AcDbSymbolTableRecord
100
AcDbLinetypeTableRecord
  2
CENTERX2
 70
0
  3
Center (2x) ________  __  ________  __  _____
 72
65
 73
4
 40
101.6000000000000085
 49
63.5
 74
0
 49
-12.6999999999999993
 74
0
 49
12.6999999999999993
 74
0
 49
-12.6999999999999993
 74
0
  0
LTYPE
  5
3D
100
AcDbSymbolTableRecord
100
AcDbLinetypeTableRecord
  2
BORDER2
 70
0
  3
Border (.5x) __.__.__.__.__.__.__.__.__.__.__.
 72
65
 73
6
 40
22.2249999999999979
 49
6.3499999999999996
 74
0
 49
-3.1749999999999998
 74
0
 49
6.3499999999999996
 74
0
 49
-3.1749999999999998
 74
0
 49
0.0
 74
0
 49
-3.1749999999999998
 74
0
  0
LTYPE
  5
3E
100
AcDbSymbolTableRecord
100
AcDbLinetypeTableRecord
  2
DASHDOT2
 70
0
  3
Dash dot (.5x) _._._._._._._._._._._._._._._.
 72
65
 73
4
 40
12.6999999999999993
 49
6.3499999999999996
 74
0
 49
-3.1749999999999998
 74
0
 49
0.0
 74
0
 49
-3.1749999999999998
 74
0
  0
LTYPE
  5
3F
100
AcDbSymbolTableRecord
100
AcDbLinetypeTableRecord
  2
ACAD_ISO12W100
 70
0
  3
ISO dash double-dot __ . . __ . . __ . . __ . . 
 72
65
 73
6
 40
21.0
 49
12.0
 74
0
 49
-3.0
 74
0
 49
0.0
 74
0
 49
-3.0
 74
0
 49
0.0
 74
0
 49
-3.0
 74
0
  0
LTYPE
  5
40
100
AcDbSymbolTableRecord
100
AcDbLinetypeTableRecord
  2
ACAD_ISO07W100
 70
0
  3
ISO dot . . . . . . . . . . . . . . . . . . . . 
 72
65
 73
2
 40
3.0
 49
0.0
 74
0
 49
-3.0
 74
0
  0
LTYPE
  5
41
100
AcDbSymbolTableRecord
100
AcDbLinetypeTableRecord
  2
HIDDEN
 70
0
  3
Hidden __ __ __ __ __ __ __ __ __ __ __ __ __ __
 72
65
 73
2
 40
9.5249999999999986
 49
6.3499999999999996
 74
0
 49
-3.1749999999999998
 74
0
  0
LTYPE
  5
42
100
AcDbSymbolTableRecord
100
AcDbLinetypeTableRecord
  2
ACAD_ISO06W100
 70
0
  3
ISO long-dash triple-dot ____ ... ____ ... ____
 72
65
 73
8
 40
36.0
 49
24.0
 74
0
 49
-3.0
 74
0
 49
0.0
 74
0
 49
-3.0
 74
0
 49
0.0
 74
0
 49
-3.0
 74
0
 49
0.0
 74
0
 49
-3.0
 74
0
  0
LTYPE
  5
43
100
AcDbSymbolTableRecord
100
AcDbLinetypeTableRecord
  2
CENTER
 70
0
  3
Center ____ _ ____ _ ____ _ ____ _ ____ _ ____
 72
65
 73
4
 40
50.8000000000000043
 49
31.75
 74
0
 49
-6.3499999999999996
 74
0
 49
6.3499999999999996
 74
0
 49
-6.3499999999999996
 74
0
  0
LTYPE
  5
44
100
AcDbSymbolTableRecord
100
AcDbLinetypeTableRecord
  2
DOTX2
 70
0
  3
Dot (2x) .  .  .  .  .  .  .  .  .  .  .  .  .  .
 72
65
 73
2
 40
12.6999999999999993
 49
0.0
 74
0
 49
-12.6999999999999993
 74
0
  0
LTYPE
  5
45
100
AcDbSymbolTableRecord
100
AcDbLinetypeTableRecord
  2
PHANTOM
 70
0
  3
Phantom ______  __  __  ______  __  __  ______ 
 72
65
 73
6
 40
63.5000000000000071
 49
31.75
 74
0
 49
-6.3499999999999996
 74
0
 49
6.3499999999999996
 74
0
 49
-6.3499999999999996
 74
0
 49
6.3499999999999996
 74
0
 49
-6.3499999999999996
 74
0
  0
LTYPE
  5
46
100
AcDbSymbolTableRecord
100
AcDbLinetypeTableRecord
  2
ACAD_ISO08W100
 70
0
  3
ISO long-dash short-dash ____ __ ____ __ ____ _
 72
65
 73
4
 40
36.0
 49
24.0
 74
0
 49
-3.0
 74
0
 49
6.0
 74
0
 49
-3.0
 74
0
  0
LTYPE
  5
47
100
AcDbSymbolTableRecord
100
AcDbLinetypeTableRecord
  2
DASHEDX2
 70
0
  3
Dashed (2x) ____  ____  ____  ____  ____  ___
 72
65
 73
2
 40
38.0999999999999943
 49
25.3999999999999986
 74
0
 49
-12.6999999999999993
 74
0
  0
LTYPE
  5
48
100
AcDbSymbolTableRecord
100
AcDbLinetypeTableRecord
  2
ACAD_ISO02W100
 70
0
  3
ISO dash __ __ __ __ __ __ __ __ __ __ __ __ __
 72
65
 73
2
 40
15.0
 49
12.0
 74
0
 49
-3.0
 74
0
  0
LTYPE
  5
49
100
AcDbSymbolTableRecord
100
AcDbLinetypeTableRecord
  2
PHANTOM2
 70
0
  3
Phantom (.5x) ___ _ _ ___ _ _ ___ _ _ ___ _ _
 72
65
 73
6
 40
31.7500000000000036
 49
15.875
 74
0
 49
-3.1749999999999998
 74
0
 49
3.1749999999999998
 74
0
 49
-3.1749999999999998
 74
0
 49
3.1749999999999998
 74
0
 49
-3.1749999999999998
 74
0
  0
LTYPE
  5
4A
100
AcDbSymbolTableRecord
100
AcDbLinetypeTableRecord
  2
DASHED2
 70
0
  3
Dashed (.5x) _ _ _ _ _ _ _ _ _ _ _ _ _ _ _ _ _ 
 72
65
 73
2
 40
9.5249999999999986
 49
6.3499999999999996
 74
0
 49
-3.1749999999999998
 74
0
  0
LTYPE
  5
4B
100
AcDbSymbolTableRecord
100
AcDbLinetypeTableRecord
  2
ACAD_ISO09W100
 70
0
  3
ISO long-dash double-short-dash ____ __ __ ____
 72
65
 73
6
 40
45.0
 49
24.0
 74
0
 49
-3.0
 74
0
 49
6.0
 74
0
 49
-3.0
 74
0
 49
6.0
 74
0
 49
-3.0
 74
0
  0
LTYPE
  5
4C
100
AcDbSymbolTableRecord
100
AcDbLinetypeTableRecord
  2
ACAD_ISO13W100
 70
0
  3
ISO double-dash double-dot __ __ . . __ __ . . _
 72
65
 73
8
 40
36.0
 49
12.0
 74
0
 49
-3.0
 74
0
 49
12.0
 74
0
 49
-3.0
 74
0
 49
0.0
 74
0
 49
-3.0
 74
0
 49
0.0
 74
0
 49
-3.0
 74
0
  0
LTYPE
  5
4D
100
AcDbSymbolTableRecord
100
AcDbLinetypeTableRecord
  2
DOT2
 70
0
  3
Dot (.5x) ........................................
 72
65
 73
2
 40
3.1749999999999998
 49
0.0
 74
0
 49
-3.1749999999999998
 74
0
  0
LTYPE
  5
4E
100
AcDbSymbolTableRecord
100
AcDbLinetypeTableRecord
  2
DASHED
 70
0
  3
Dashed __ __ __ __ __ __ __ __ __ __ __ __ __ _
 72
65
 73
2
 40
19.0499999999999972
 49
12.6999999999999993
 74
0
 49
-6.3499999999999996
 74
0
  0
LTYPE
  5
4F
100
AcDbSymbolTableRecord
100
AcDbLinetypeTableRecord
  2
ACAD_ISO14W100
 70
0
  3
ISO dash triple-dot __ . . . __ . . . __ . . . _
 72
65
 73
8
 40
24.0
 49
12.0
 74
0
 49
-3.0
 74
0
 49
0.0
 74
0
 49
-3.0
 74
0
 49
0.0
 74
0
 49
-3.0
 74
0
 49
0.0
 74
0
 49
-3.0
 74
0
  0
LTYPE
  5
15
100
AcDbSymbolTableRecord
100
AcDbLinetypeTableRecord
  2
BYLAYER
 70
0
  3

 72
65
 73
0
 40
0.0
  0
LTYPE
  5
50
100
AcDbSymbolTableRecord
100
AcDbLinetypeTableRecord
  2
PHANTOMX2
 70
0
  3
Phantom (2x) ____________    ____    ____   _
 72
65
 73
6
 40
127.0000000000000142
 49
63.5
 74
0
 49
-12.6999999999999993
 74
0
 49
12.6999999999999993
 74
0
 49
-12.6999999999999993
 74
0
 49
12.6999999999999993
 74
0
 49
-12.6999999999999993
 74
0
  0
LTYPE
  5
14
100
AcDbSymbolTableRecord
100
AcDbLinetypeTableRecord
  2
BYBLOCK
 70
0
  3

 72
65
 73
0
 40
0.0
  0
LTYPE
  5
51
100
AcDbSymbolTableRecord
100
AcDbLinetypeTableRecord
  2
DIVIDEX2
 70
0
  3
Divide (2x) ________  .  .  ________  .  .  _
 72
65
 73
6
 40
63.5
 49
25.3999999999999986
 74
0
 49
-12.6999999999999993
 74
0
 49
0.0
 74
0
 49
-12.6999999999999993
 74
0
 49
0.0
 74
0
 49
-12.6999999999999993
 74
0
  0
LTYPE
  5
52
100
AcDbSymbolTableRecord
100
AcDbLinetypeTableRecord
  2
BORDER
 70
0
  3
Border __ __ . __ __ . __ __ . __ __ . __ __ .
 72
65
 73
6
 40
44.4499999999999957
 49
12.6999999999999993
 74
0
 49
-6.3499999999999996
 74
0
 49
12.6999999999999993
 74
0
 49
-6.3499999999999996
 74
0
 49
0.0
 74
0
 49
-6.3499999999999996
 74
0
  0
LTYPE
  5
53
100
AcDbSymbolTableRecord
100
AcDbLinetypeTableRecord
  2
DIVIDE2
 70
0
  3
Divide (.5x) __..__..__..__..__..__..__..__.._
 72
65
 73
6
 40
15.875
 49
6.3499999999999996
 74
0
 49
-3.1749999999999998
 74
0
 49
0.0
 74
0
 49
-3.1749999999999998
 74
0
 49
0.0
 74
0
 49
-3.1749999999999998
 74
0
  0
LTYPE
  5
54
100
AcDbSymbolTableRecord
100
AcDbLinetypeTableRecord
  2
DOT
 70
0
  3
Dot . . . . . . . . . . . . . . . . . . . . . . . .
 72
65
 73
2
 40
6.3499999999999996
 49
0.0
 74
0
 49
-6.3499999999999996
 74
0
  0
LTYPE
  5
55
100
AcDbSymbolTableRecord
100
AcDbLinetypeTableRecord
  2
DASHDOT
 70
0
  3
Dash dot __ . __ . __ . __ . __ . __ . __ . __
 72
65
 73
4
 40
25.3999999999999986
 49
12.6999999999999993
 74
0
 49
-6.3499999999999996
 74
0
 49
0.0
 74
0
 49
-6.3499999999999996
 74
0
  0
LTYPE
  5
56
100
AcDbSymbolTableRecord
100
AcDbLinetypeTableRecord
  2
ACAD_ISO03W100
 70
0
  3
ISO dash space __    __    __    __    __    __
 72
65
 73
2
 40
30.0
 49
12.0
 74
0
 49
-18.0
 74
0
  0
ENDTAB
  0
TABLE
  2
LAYER
  5
2
100
AcDbSymbolTable
 70
2
  0
LAYER
  5
57
100
AcDbSymbolTableRecord
100
AcDbLayerTableRecord
  2
draft
 70
0
 62
2
420
16776960
  6
Continuous
370
25
390
F
  0
LAYER
  5
10
100
AcDbSymbolTableRecord
100
AcDbLayerTableRecord
  2
0
 70
0
 62
7
420
16777215
  6
Continuous
370
5
390
F
  0
ENDTAB
  0
TABLE
  2
STYLE
  5
3
100
AcDbSymbolTable
 70
1
  0
STYLE
  5
58
100
AcDbSymbolTableRecord
100
AcDbTextStyleTableRecord
  2
Standard
 70
0
 40
0.0
 41
1.0
 50
0.0
 71
0
 42
2.5
  3

  4

1001
ACAD
1000
txt
1071
0
  0
ENDTAB
  0
TABLE
  2
VIEW
  5
6
100
AcDbSymbolTable
 70
0
  0
ENDTAB
  0
TABLE
  2
UCS
  5
7
100
AcDbSymbolTable
 70
0
  0
ENDTAB
  0
TABLE
  2
APPID
  5
9
100
AcDbSymbolTable
 70
1
  0
APPID
  5
12
100
AcDbSymbolTableRecord
100
AcDbRegAppTableRecord
  2
ACAD
 70
0
  0
APPID
  5
59
100
AcDbSymbolTableRecord
100
AcDbRegAppTableRecord
  2
QCAD
 70
0
  0
ENDTAB
  0
TABLE
  2
DIMSTYLE
  5
A
100
AcDbSymbolTable
 70
1
100
AcDbDimStyleTable
 71
0
  0
DIMSTYLE
105
27
100
AcDbSymbolTableRecord
100
AcDbDimStyleTableRecord
  2
Standard
 41
0.18
 42
0.0625
 43
3.75
 44
0.18
 70
0
 73
0
 74
0
 77
1
 78
8
140
0.18
141
2.5
143
0.03937007874016
147
0.09
171
3
172
1
271
2
272
2
274
3
278
44
283
0
284
8
340
58
  0
ENDTAB
  0
TABLE
  2
BLOCK_RECORD
  5
1
100
AcDbSymbolTable
 70
1
  0
BLOCK_RECORD
  5
1F
100
AcDbSymbolTableRecord
100
AcDbBlockTableRecord
  2
*Model_Space
340
22
  0
BLOCK_RECORD
  5
1B
100
AcDbSymbolTableRecord
100
AcDbBlockTableRecord
  2
*Paper_Space
340
1E
  0
BLOCK_RECORD
  5
23
100
AcDbSymbolTableRecord
100
AcDbBlockTableRecord
  2
*Paper_Space0
340
26
  0
ENDTAB
  0
ENDSEC
  0
SECTION
  2
BLOCKS
  0
BLOCK
  5
20
100
AcDbEntity
  8
0
100
AcDbBlockBegin
  2
*Model_Space
 70
0
 10
0.0
 20
0.0
 30
0.0
  3
*Model_Space
  1

  0
ENDBLK
  5
21
100
AcDbEntity
  8
0
100
AcDbBlockEnd
  0
BLOCK
  5
1C
100
AcDbEntity
 67
1
  8
0
100
AcDbBlockBegin
  2
*Paper_Space
 70
0
 10
0.0
 20
0.0
 30
0.0
  3
*Paper_Space
  1

  0
ENDBLK
  5
1D
100
AcDbEntity
 67
1
  8
0
100
AcDbBlockEnd
  0
BLOCK
  5
24
100
AcDbEntity
  8
0
100
AcDbBlockBegin
  2
*Paper_Space0
 70
0
 10
0.0
 20
0.0
 30
0.0
  3
*Paper_Space0
  1

  0
ENDBLK
  5
25
100
AcDbEntity
  8
0
100
AcDbBlockEnd
  0
ENDSEC
  0
SECTION
  2
ENTITIES
  0
LINE
  5
5A
100
AcDbEntity
  8
0
 62
0
370
-1
 48
1.0
  6
BYLAYER
100
AcDbLine
 10
0.0937066
 20
119.3439999999999941
 30
0.0
 11
309.8450000000000273
 21
119.3439999999999941
 31
0.0
  0
LINE
  5
5B
100
AcDbEntity
  8
0
 62
0
370
-1
 48
1.0
  6
BYLAYER
100
AcDbLine
 10
309.8450000000000273
 20
119.3439999999999941
 30
0.0
 11
309.8450000000000273
 21
0.0923286
 31
0.0
  0
LINE
  5
5C
100
AcDbEntity
  8
0
 62
0
370
-1
 48
1.0
  6
BYLAYER
100
AcDbLine
 10
309.8450000000000273
 20
0.0923286
 30
0.0
 11
0.0937066
 21
0.0923286
 31
0.0
  0
LINE
  5
5D
100
AcDbEntity
  8
0
 62
0
370
-1
 48
1.0
  6
BYLAYER
100
AcDbLine
 10
0.0937066
 20
0.0923286
 30
0.0
 11
0.0937066
 21
119.3439999999999941
 31
0.0
  0
LINE
  5
5E
100
AcDbEntity
  8
0
 62
0
370
-1
 48
1.0
  6
BYLAYER
100
AcDbLine
 10
43.1933999999999969
 20
28.6176999999999992
 30
0.0
 11
57.1940999999999988
 21
28.6176999999999992
 31
0.0
  0
LINE
  5
5F
100
AcDbEntity
  8
0
 62
0
370
-1
 48
1.0
  6
BYLAYER
100
AcDbLine
 10
57.1940999999999988
 20
28.6176999999999992
 30
0.0
 11
57.1940999999999988
 21
14.6181999999999999
 31
0.0
  0
LINE
  5
60
100
AcDbEntity
  8
0
 62
0
370
-1
 48
1.0
  6
BYLAYER
100
AcDbLine
 10
57.1940999999999988
 20
14.6181999999999999
 30
0.0
 11
43.1933999999999969
 21
14.6181999999999999
 31
0.0
  0
LINE
  5
61
100
AcDbEntity
  8
0
 62
0
370
-1
 48
1.0
  6
BYLAYER
100
AcDbLine
 10
43.1933999999999969
 20
14.6181999999999999
 30
0.0
 11
43.1933999999999969
 21
28.6176999999999992
 31
0.0
  0
LINE
  5
62
100
AcDbEntity
  8
0
 62
0
370
-1
 48
1.0
  6
BYLAYER
100
AcDbLine
 10
67.0058999999999969
 20
28.6176999999999992
 30
0.0
 11
81.0052000000000021
 21
28.6176999999999992
 31
0.0
  0
LINE
  5
63
100
AcDbEntity
  8
0
 62
0
370
-1
 48
1.0
  6
BYLAYER
100
AcDbLine
 10
81.0052000000000021
 20
28.6176999999999992
 30
0.0
 11
81.0052000000000021
 21
14.6181999999999999
 31
0.0
  0
LINE
  5
64
100
AcDbEntity
  8
0
 62
0
370
-1
 48
1.0
  6
BYLAYER
100
AcDbLine
 10
81.0052000000000021
 20
14.6181999999999999
 30
0.0
 11
67.0058999999999969
 21
14.6181999999999999
 31
0.0
  0
LINE
  5
65
100
AcDbEntity
  8
0
 62
0
370
-1
 48
1.0
  6
BYLAYER
100
AcDbLine
 10
67.0058999999999969
 20
14.6181999999999999
 30
0.0
 11
67.0058999999999969
 21
28.6176999999999992
 31
0.0
  0
LINE
  5
66
100
AcDbEntity
  8
0
 62
0
370
-1
 48
1.0
  6
BYLAYER
100
AcDbLine
 10
138.4426000000000556
 20
28.6177000000000028
 30
0.0
 11
152.4436000000000604
 21
28.6177000000000028
 31
0.0
  0
LINE
  5
67
100
AcDbEntity
  8
0
 62
0
370
-1
 48
1.0
  6
BYLAYER
100
AcDbLine
 10
152.4436000000000604
 20
28.6177000000000028
 30
0.0
 11
152.4436000000000604
 21
14.6182000000000034
 31
0.0
  0
LINE
  5
68
100
AcDbEntity
  8
0
 62
0
370
-1
 48
1.0
  6
BYLAYER
100
AcDbLine
 10
152.4436000000000604
 20
14.6182000000000034
 30
0.0
 11
138.4426000000000556
 21
14.6182000000000034
 31
0.0
  0
LINE
  5
69
100
AcDbEntity
  8
0
 62
0
370
-1
 48
1.0
  6
BYLAYER
100
AcDbLine
 10
138.4426000000000556
 20
14.6182000000000034
 30
0.0
 11
138.4426000000000556
 21
28.6177000000000028
 31
0.0
  0
LINE
  5
6A
100
AcDbEntity
  8
0
 62
0
370
-1
 48
1.0
  6
BYLAYER
100
AcDbLine
 10
209.8810000000000002
 20
28.6176999999999992
 30
0.0
 11
223.8799999999999955
 21
28.6176999999999992
 31
0.0
  0
LINE
  5
6B
100
AcDbEntity
  8
0
 62
0
370
-1
 48
1.0
  6
BYLAYER
100
AcDbLine
 10
223.8799999999999955
 20
28.6176999999999992
 30
0.0
 11
223.8799999999999955
 21
14.6181999999999999
 31
0.0
  0
LINE
  5
6C
100
AcDbEntity
  8
0
 62
0
370
-1
 48
1.0
  6
BYLAYER
100
AcDbLine
 10
223.8799999999999955
 20
14.6181999999999999
 30
0.0
 11
209.8810000000000002
 21
14.6181999999999999
 31
0.0
  0
LINE
  5
6D
100
AcDbEntity
  8
0
 62
0
370
-1
 48
1.0
  6
BYLAYER
100
AcDbLine
 10
209.8810000000000002
 20
14.6181999999999999
 30
0.0
 11
209.8810000000000002
 21
28.6176999999999992
 31
0.0
  0
LINE
  5
6E
100
AcDbEntity
  8
0
 62
0
370
-1
 48
1.0
  6
BYLAYER
100
AcDbLine
 10
233.6930000000000121
 20
28.6176999999999992
 30
0.0
 11
247.6939999999999884
 21
28.6176999999999992
 31
0.0
  0
LINE
  5
6F
100
AcDbEntity
  8
0
 62
0
370
-1
 48
1.0
  6
BYLAYER
100
AcDbLine
 10
247.6939999999999884
 20
28.6176999999999992
 30
0.0
 11
247.6939999999999884
 21
14.6181999999999999
 31
0.0
  0
LINE
  5
70
100
AcDbEntity
  8
0
 62
0
370
-1
 48
1.0
  6
BYLAYER
100
AcDbLine
 10
247.6939999999999884
 20
14.6181999999999999
 30
0.0
 11
233.6930000000000121
 21
14.6181999999999999
 31
0.0
  0
LINE
  5
71
100
AcDbEntity
  8
0
 62
0
370
-1
 48
1.0
  6
BYLAYER
100
AcDbLine
 10
233.6930000000000121
 20
14.6181999999999999
 30
0.0
 11
233.6930000000000121
 21
28.6176999999999992
 31
0.0
  0
LINE
  5
72
100
AcDbEntity
  8
0
 62
0
370
-1
 48
1.0
  6
BYLAYER
100
AcDbLine
 10
26.5244999999999997
 20
47.6677000000000035
 30
0.0
 11
40.5253000000000014
 21
47.6677000000000035
 31
0.0
  0
LINE
  5
73
100
AcDbEntity
  8
0
 62
0
370
-1
 48
1.0
  6
BYLAYER
100
AcDbLine
 10
40.5253000000000014
 20
47.6677000000000035
 30
0.0
 11
40.5253000000000014
 21
33.6681999999999988
 31
0.0
  0
LINE
  5
74
100
AcDbEntity
  8
0
 62
0
370
-1
 48
1.0
  6
BYLAYER
100
AcDbLine
 10
40.5253000000000014
 20
33.6681999999999988
 30
0.0
 11
26.5244999999999997
 21
33.6681999999999988
 31
0.0
  0
LINE
  5
75
100
AcDbEntity
  8
0
 62
0
370
-1
 48
1.0
  6
BYLAYER
100
AcDbLine
 10
26.5244999999999997
 20
33.6681999999999988
 30
0.0
 11
26.5244999999999997
 21
47.6677000000000035
 31
0.0
  0
LINE
  5
76
100
AcDbEntity
  8
0
 62
0
370
-1
 48
1.0
  6
BYLAYER
100
AcDbLine
 10
57.4808999999999983
 20
47.6677000000000035
 30
0.0
 11
71.4801999999999964
 21
47.6677000000000035
 31
0.0
  0
LINE
  5
77
100
AcDbEntity
  8
0
 62
0
370
-1
 48
1.0
  6
BYLAYER
100
AcDbLine
 10
71.4801999999999964
 20
47.6677000000000035
 30
0.0
 11
71.4801999999999964
 21
33.6681999999999988
 31
0.0
  0
LINE
  5
78
100
AcDbEntity
  8
0
 62
0
370
-1
 48
1.0
  6
BYLAYER
100
AcDbLine
 10
71.4801999999999964
 20
33.6681999999999988
 30
0.0
 11
57.4808999999999983
 21
33.6681999999999988
 31
0.0
  0
LINE
  5
79
100
AcDbEntity
  8
0
 62
0
370
-1
 48
1.0
  6
BYLAYER
100
AcDbLine
 10
57.4808999999999983
 20
33.6681999999999988
 30
0.0
 11
57.4808999999999983
 21
47.6677000000000035
 31
0.0
  0
LINE
  5
7A
100
AcDbEntity
  8
0
 62
0
370
-1
 48
1.0
  6
BYLAYER
100
AcDbLine
 10
76.5309000000000026
 20
47.6677000000000035
 30
0.0
 11
90.5301999999999936
 21
47.6677000000000035
 31
0.0
  0
LINE
  5
7B
100
AcDbEntity
  8
0
 62
0
370
-1
 48
1.0
  6
BYLAYER
100
AcDbLine
 10
90.5301999999999936
 20
47.6677000000000035
 30
0.0
 11
90.5301999999999936
 21
33.6681999999999988
 31
0.0
  0
LINE
  5
7C
100
AcDbEntity
  8
0
 62
0
370
-1
 48
1.0
  6
BYLAYER
100
AcDbLine
 10
90.5301999999999936
 20
33.6681999999999988
 30
0.0
 11
76.5309000000000026
 21
33.6681999999999988
 31
0.0
  0
LINE
  5
7D
100
AcDbEntity
  8
0
 62
0
370
-1
 48
1.0
  6
BYLAYER
100
AcDbLine
 10
76.5309000000000026
 20
33.6681999999999988
 30
0.0
 11
76.5309000000000026
 21
47.6677000000000035
 31
0.0
  0
LINE
  5
7E
100
AcDbEntity
  8
0
 62
0
370
-1
 48
1.0
  6
BYLAYER
100
AcDbLine
 10
95.5808999999999997
 20
47.6677000000000035
 30
0.0
 11
109.5799999999999983
 21
47.6677000000000035
 31
0.0
  0
LINE
  5
7F
100
AcDbEntity
  8
0
 62
0
370
-1
 48
1.0
  6
BYLAYER
100
AcDbLine
 10
109.5799999999999983
 20
47.6677000000000035
 30
0.0
 11
109.5799999999999983
 21
33.6681999999999988
 31
0.0
  0
LINE
  5
80
100
AcDbEntity
  8
0
 62
0
370
-1
 48
1.0
  6
BYLAYER
100
AcDbLine
 10
109.5799999999999983
 20
33.6681999999999988
 30
0.0
 11
95.5808999999999997
 21
33.6681999999999988
 31
0.0
  0
LINE
  5
81
100
AcDbEntity
  8
0
 62
0
370
-1
 48
1.0
  6
BYLAYER
100
AcDbLine
 10
95.5808999999999997
 20
33.6681999999999988
 30
0.0
 11
95.5808999999999997
 21
47.6677000000000035
 31
0.0
  0
LINE
  5
82
100
AcDbEntity
  8
0
 62
0
370
-1
 48
1.0
  6
BYLAYER
100
AcDbLine
 10
114.6310000000000002
 20
47.6677000000000035
 30
0.0
 11
128.6299999999999955
 21
47.6677000000000035
 31
0.0
  0
LINE
  5
83
100
AcDbEntity
  8
0
 62
0
370
-1
 48
1.0
  6
BYLAYER
100
AcDbLine
 10
128.6299999999999955
 20
47.6677000000000035
 30
0.0
 11
128.6299999999999955
 21
33.6681999999999988
 31
0.0
  0
LINE
  5
84
100
AcDbEntity
  8
0
 62
0
370
-1
 48
1.0
  6
BYLAYER
100
AcDbLine
 10
128.6299999999999955
 20
33.6681999999999988
 30
0.0
 11
114.6310000000000002
 21
33.6681999999999988
 31
0.0
  0
LINE
  5
85
100
AcDbEntity
  8
0
 62
0
370
-1
 48
1.0
  6
BYLAYER
100
AcDbLine
 10
114.6310000000000002
 20
33.6681999999999988
 30
0.0
 11
114.6310000000000002
 21
47.6677000000000035
 31
0.0
  0
LINE
  5
86
100
AcDbEntity
  8
0
 62
0
370
-1
 48
1.0
  6
BYLAYER
100
AcDbLine
 10
133.6810000000000116
 20
47.6677000000000035
 30
0.0
 11
147.6800000000000068
 21
47.6677000000000035
 31
0.0
  0
LINE
  5
87
100
AcDbEntity
  8
0
 62
0
370
-1
 48
1.0
  6
BYLAYER
100
AcDbLine
 10
147.6800000000000068
 20
47.6677000000000035
 30
0.0
 11
147.6800000000000068
 21
33.6681999999999988
 31
0.0
  0
LINE
  5
88
100
AcDbEntity
  8
0
 62
0
370
-1
 48
1.0
  6
BYLAYER
100
AcDbLine
 10
147.6800000000000068
 20
33.6681999999999988
 30
0.0
 11
133.6810000000000116
 21
33.6681999999999988
 31
0.0
  0
LINE
  5
89
100
AcDbEntity
  8
0
 62
0
370
-1
 48
1.0
  6
BYLAYER
100
AcDbLine
 10
133.6810000000000116
 20
33.6681999999999988
 30
0.0
 11
133.6810000000000116
 21
47.6677000000000035
 31
0.0
  0
LINE
  5
8A
100
AcDbEntity
  8
0
 62
0
370
-1
 48
1.0
  6
BYLAYER
100
AcDbLine
 10
152.7309999999999945
 20
47.6677000000000035
 30
0.0
 11
166.7299999999999898
 21
47.6677000000000035
 31
0.0
  0
LINE
  5
8B
100
AcDbEntity
  8
0
 62
0
370
-1
 48
1.0
  6
BYLAYER
100
AcDbLine
 10
166.7299999999999898
 20
47.6677000000000035
 30
0.0
 11
166.7299999999999898
 21
33.6681999999999988
 31
0.0
  0
LINE
  5
8C
100
AcDbEntity
  8
0
 62
0
370
-1
 48
1.0
  6
BYLAYER
100
AcDbLine
 10
166.7299999999999898
 20
33.6681999999999988
 30
0.0
 11
152.7309999999999945
 21
33.6681999999999988
 31
0.0
  0
LINE
  5
8D
100
AcDbEntity
  8
0
 62
0
370
-1
 48
1.0
  6
BYLAYER
100
AcDbLine
 10
152.7309999999999945
 20
33.6681999999999988
 30
0.0
 11
152.7309999999999945
 21
47.6677000000000035
 31
0.0
  0
LINE
  5
8E
100
AcDbEntity
  8
0
 62
0
370
-1
 48
1.0
  6
BYLAYER
100
AcDbLine
 10
171.7810000000000059
 20
47.6677000000000035
 30
0.0
 11
185.7800000000000011
 21
47.6677000000000035
 31
0.0
  0
LINE
  5
8F
100
AcDbEntity
  8
0
 62
0
370
-1
 48
1.0
  6
BYLAYER
100
AcDbLine
 10
185.7800000000000011
 20
47.6677000000000035
 30
0.0
 11
185.7800000000000011
 21
33.6681999999999988
 31
0.0
  0
LINE
  5
90
100
AcDbEntity
  8
0
 62
0
370
-1
 48
1.0
  6
BYLAYER
100
AcDbLine
 10
185.7800000000000011
 20
33.6681999999999988
 30
0.0
 11
171.7810000000000059
 21
33.6681999999999988
 31
0.0
  0
LINE
  5
91
100
AcDbEntity
  8
0
 62
0
370
-1
 48
1.0
  6
BYLAYER
100
AcDbLine
 10
171.7810000000000059
 20
33.6681999999999988
 30
0.0
 11
171.7810000000000059
 21
47.6677000000000035
 31
0.0
  0
LINE
  5
92
100
AcDbEntity
  8
0
 62
0
370
-1
 48
1.0
  6
BYLAYER
100
AcDbLine
 10
190.8309999999999889
 20
47.6677000000000035
 30
0.0
 11
204.8300000000000125
 21
47.6677000000000035
 31
0.0
  0
LINE
  5
93
100
AcDbEntity
  8
0
 62
0
370
-1
 48
1.0
  6
BYLAYER
100
AcDbLine
 10
204.8300000000000125
 20
47.6677000000000035
 30
0.0
 11
204.8300000000000125
 21
33.6681999999999988
 31
0.0
  0
LINE
  5
94
100
AcDbEntity
  8
0
 62
0
370
-1
 48
1.0
  6
BYLAYER
100
AcDbLine
 10
204.8300000000000125
 20
33.6681999999999988
 30
0.0
 11
190.8309999999999889
 21
33.6681999999999988
 31
0.0
  0
LINE
  5
95
100
AcDbEntity
  8
0
 62
0
370
-1
 48
1.0
  6
BYLAYER
100
AcDbLine
 10
190.8309999999999889
 20
33.6681999999999988
 30
0.0
 11
190.8309999999999889
 21
47.6677000000000035
 31
0.0
  0
LINE
  5
96
100
AcDbEntity
  8
0
 62
0
370
-1
 48
1.0
  6
BYLAYER
100
AcDbLine
 10
209.8810000000000002
 20
47.6677000000000035
 30
0.0
 11
223.8799999999999955
 21
47.6677000000000035
 31
0.0
  0
LINE
  5
97
100
AcDbEntity
  8
0
 62
0
370
-1
 48
1.0
  6
BYLAYER
100
AcDbLine
 10
223.8799999999999955
 20
47.6677000000000035
 30
0.0
 11
223.8799999999999955
 21
33.6681999999999988
 31
0.0
  0
LINE
  5
98
100
AcDbEntity
  8
0
 62
0
370
-1
 48
1.0
  6
BYLAYER
100
AcDbLine
 10
223.8799999999999955
 20
33.6681999999999988
 30
0.0
 11
209.8810000000000002
 21
33.6681999999999988
 31
0.0
  0
LINE
  5
99
100
AcDbEntity
  8
0
 62
0
370
-1
 48
1.0
  6
BYLAYER
100
AcDbLine
 10
209.8810000000000002
 20
33.6681999999999988
 30
0.0
 11
209.8810000000000002
 21
47.6677000000000035
 31
0.0
  0
LINE
  5
9A
100
AcDbEntity
  8
0
 62
0
370
-1
 48
1.0
  6
BYLAYER
100
AcDbLine
 10
228.9310000000000116
 20
47.6677000000000035
 30
0.0
 11
242.9300000000000068
 21
47.6677000000000035
 31
0.0
  0
LINE
  5
9B
100
AcDbEntity
  8
0
 62
0
370
-1
 48
1.0
  6
BYLAYER
100
AcDbLine
 10
242.9300000000000068
 20
47.6677000000000035
 30
0.0
 11
242.9300000000000068
 21
33.6681999999999988
 31
0.0
  0
LINE
  5
9C
100
AcDbEntity
  8
0
 62
0
370
-1
 48
1.0
  6
BYLAYER
100
AcDbLine
 10
242.9300000000000068
 20
33.6681999999999988
 30
0.0
 11
228.9310000000000116
 21
33.6681999999999988
 31
0.0
  0
LINE
  5
9D
100
AcDbEntity
  8
0
 62
0
370
-1
 48
1.0
  6
BYLAYER
100
AcDbLine
 10
228.9310000000000116
 20
33.6681999999999988
 30
0.0
 11
228.9310000000000116
 21
47.6677000000000035
 31
0.0
  0
LINE
  5
9E
100
AcDbEntity
  8
0
 62
0
370
-1
 48
1.0
  6
BYLAYER
100
AcDbLine
 10
255.125
 20
47.6677000000000035
 30
0.0
 11
269.125
 21
47.6677000000000035
 31
0.0
  0
LINE
  5
9F
100
AcDbEntity
  8
0
 62
0
370
-1
 48
1.0
  6
BYLAYER
100
AcDbLine
 10
269.125
 20
47.6677000000000035
 30
0.0
 11
269.125
 21
33.6681999999999988
 31
0.0
  0
LINE
  5
A0
100
AcDbEntity
  8
0
 62
0
370
-1
 48
1.0
  6
BYLAYER
100
AcDbLine
 10
269.125
 20
33.6681999999999988
 30
0.0
 11
255.125
 21
33.6681999999999988
 31
0.0
  0
LINE
  5
A1
100
AcDbEntity
  8
0
 62
0
370
-1
 48
1.0
  6
BYLAYER
100
AcDbLine
 10
255.125
 20
33.6681999999999988
 30
0.0
 11
255.125
 21
47.6677000000000035
 31
0.0
  0
LINE
  5
A2
100
AcDbEntity
  8
0
 62
0
370
-1
 48
1.0
  6
BYLAYER
100
AcDbLine
 10
281.3179999999999836
 20
47.6677000000000035
 30
0.0
 11
295.3190000000000168
 21
47.6677000000000035
 31
0.0
  0
LINE
  5
A3
100
AcDbEntity
  8
0
 62
0
370
-1
 48
1.0
  6
BYLAYER
100
AcDbLine
 10
295.3190000000000168
 20
47.6677000000000035
 30
0.0
 11
295.3190000000000168
 21
33.6681999999999988
 31
0.0
  0
LINE
  5
A4
100
AcDbEntity
  8
0
 62
0
370
-1
 48
1.0
  6
BYLAYER
100
AcDbLine
 10
295.3190000000000168
 20
33.6681999999999988
 30
0.0
 11
281.3179999999999836
 21
33.6681999999999988
 31
0.0
  0
LINE
  5
A5
100
AcDbEntity
  8
0
 62
0
370
-1
 48
1.0
  6
BYLAYER
100
AcDbLine
 10
281.3179999999999836
 20
33.6681999999999988
 30
0.0
 11
281.3179999999999836
 21
47.6677000000000035
 31
0.0
  0
LINE
  5
A6
100
AcDbEntity
  8
0
 62
0
370
-1
 48
1.0
  6
BYLAYER
100
AcDbLine
 10
21.7620000000000005
 20
66.7176999999999936
 30
0.0
 11
35.7614000000000019
 21
66.7176999999999936
 31
0.0
  0
LINE
  5
A7
100
AcDbEntity
  8
0
 62
0
370
-1
 48
1.0
  6
BYLAYER
100
AcDbLine
 10
35.7614000000000019
 20
66.7176999999999936
 30
0.0
 11
35.7614000000000019
 21
52.7184000000000026
 31
0.0
  0
LINE
  5
A8
100
AcDbEntity
  8
0
 62
0
370
-1
 48
1.0
  6
BYLAYER
100
AcDbLine
 10
35.7614000000000019
 20
52.7184000000000026
 30
0.0
 11
21.7620000000000005
 21
52.7184000000000026
 31
0.0
  0
LINE
  5
A9
100
AcDbEntity
  8
0
 62
0
370
-1
 48
1.0
  6
BYLAYER
100
AcDbLine
 10
21.7620000000000005
 20
52.7184000000000026
 30
0.0
 11
21.7620000000000005
 21
66.7176999999999936
 31
0.0
  0
LINE
  5
AA
100
AcDbEntity
  8
0
 62
0
370
-1
 48
1.0
  6
BYLAYER
100
AcDbLine
 10
47.9558999999999997
 20
66.7176999999999936
 30
0.0
 11
61.9551999999999978
 21
66.7176999999999936
 31
0.0
  0
LINE
  5
AB
100
AcDbEntity
  8
0
 62
0
370
-1
 48
1.0
  6
BYLAYER
100
AcDbLine
 10
61.9551999999999978
 20
66.7176999999999936
 30
0.0
 11
61.9551999999999978
 21
52.7184000000000026
 31
0.0
  0
LINE
  5
AC
100
AcDbEntity
  8
0
 62
0
370
-1
 48
1.0
  6
BYLAYER
100
AcDbLine
 10
61.9551999999999978
 20
52.7184000000000026
 30
0.0
 11
47.9558999999999997
 21
52.7184000000000026
 31
0.0
  0
LINE
  5
AD
100
AcDbEntity
  8
0
 62
0
370
-1
 48
1.0
  6
BYLAYER
100
AcDbLine
 10
47.9558999999999997
 20
52.7184000000000026
 30
0.0
 11
47.9558999999999997
 21
66.7176999999999936
 31
0.0
  0
LINE
  5
AE
100
AcDbEntity
  8
0
 62
0
370
-1
 48
1.0
  6
BYLAYER
100
AcDbLine
 10
67.0058999999999969
 20
66.7176999999999936
 30
0.0
 11
81.0052000000000021
 21
66.7176999999999936
 31
0.0
  0
LINE
  5
AF
100
AcDbEntity
  8
0
 62
0
370
-1
 48
1.0
  6
BYLAYER
100
AcDbLine
 10
81.0052000000000021
 20
66.7176999999999936
 30
0.0
 11
81.0052000000000021
 21
52.7184000000000026
 31
0.0
  0
LINE
  5
B0
100
AcDbEntity
  8
0
 62
0
370
-1
 48
1.0
  6
BYLAYER
100
AcDbLine
 10
81.0052000000000021
 20
52.7184000000000026
 30
0.0
 11
67.0058999999999969
 21
52.7184000000000026
 31
0.0
  0
LINE
  5
B1
100
AcDbEntity
  8
0
 62
0
370
-1
 48
1.0
  6
BYLAYER
100
AcDbLine
 10
67.0058999999999969
 20
52.7184000000000026
 30
0.0
 11
67.0058999999999969
 21
66.7176999999999936
 31
0.0
  0
LINE
  5
B2
100
AcDbEntity
  8
0
 62
0
370
-1
 48
1.0
  6
BYLAYER
100
AcDbLine
 10
86.0558999999999941
 20
66.7176999999999936
 30
0.0
 11
100.0550000000000068
 21
66.7176999999999936
 31
0.0
  0
LINE
  5
B3
100
AcDbEntity
  8
0
 62
0
370
-1
 48
1.0
  6
BYLAYER
100
AcDbLine
 10
100.0550000000000068
 20
66.7176999999999936
 30
0.0
 11
100.0550000000000068
 21
52.7184000000000026
 31
0.0
  0
LINE
  5
B4
100
AcDbEntity
  8
0
 62
0
370
-1
 48
1.0
  6
BYLAYER
100
AcDbLine
 10
100.0550000000000068
 20
52.7184000000000026
 30
0.0
 11
86.0558999999999941
 21
52.7184000000000026
 31
0.0
  0
LINE
  5
B5
100
AcDbEntity
  8
0
 62
0
370
-1
 48
1.0
  6
BYLAYER
100
AcDbLine
 10
86.0558999999999941
 20
52.7184000000000026
 30
0.0
 11
86.0558999999999941
 21
66.7176999999999936
 31
0.0
  0
LINE
  5
B6
100
AcDbEntity
  8
0
 62
0
370
-1
 48
1.0
  6
BYLAYER
100
AcDbLine
 10
105.1059999999999945
 20
66.7176999999999936
 30
0.0
 11
119.105000000000004
 21
66.7176999999999936
 31
0.0
  0
LINE
  5
B7
100
AcDbEntity
  8
0
 62
0
370
-1
 48
1.0
  6
BYLAYER
100
AcDbLine
 10
119.105000000000004
 20
66.7176999999999936
 30
0.0
 11
119.105000000000004
 21
52.7184000000000026
 31
0.0
  0
LINE
  5
B8
100
AcDbEntity
  8
0
 62
0
370
-1
 48
1.0
  6
BYLAYER
100
AcDbLine
 10
119.105000000000004
 20
52.7184000000000026
 30
0.0
 11
105.1059999999999945
 21
52.7184000000000026
 31
0.0
  0
LINE
  5
B9
100
AcDbEntity
  8
0
 62
0
370
-1
 48
1.0
  6
BYLAYER
100
AcDbLine
 10
105.1059999999999945
 20
52.7184000000000026
 30
0.0
 11
105.1059999999999945
 21
66.7176999999999936
 31
0.0
  0
LINE
  5
BA
100
AcDbEntity
  8
0
 62
0
370
-1
 48
1.0
  6
BYLAYER
100
AcDbLine
 10
124.1560000000000059
 20
66.7176999999999936
 30
0.0
 11
138.1550000000000011
 21
66.7176999999999936
 31
0.0
  0
LINE
  5
BB
100
AcDbEntity
  8
0
 62
0
370
-1
 48
1.0
  6
BYLAYER
100
AcDbLine
 10
138.1550000000000011
 20
66.7176999999999936
 30
0.0
 11
138.1550000000000011
 21
52.7184000000000026
 31
0.0
  0
LINE
  5
BC
100
AcDbEntity
  8
0
 62
0
370
-1
 48
1.0
  6
BYLAYER
100
AcDbLine
 10
138.1550000000000011
 20
52.7184000000000026
 30
0.0
 11
124.1560000000000059
 21
52.7184000000000026
 31
0.0
  0
LINE
  5
BD
100
AcDbEntity
  8
0
 62
0
370
-1
 48
1.0
  6
BYLAYER
100
AcDbLine
 10
124.1560000000000059
 20
52.7184000000000026
 30
0.0
 11
124.1560000000000059
 21
66.7176999999999936
 31
0.0
  0
LINE
  5
BE
100
AcDbEntity
  8
0
 62
0
370
-1
 48
1.0
  6
BYLAYER
100
AcDbLine
 10
143.2059999999999889
 20
66.7176999999999936
 30
0.0
 11
157.2050000000000125
 21
66.7176999999999936
 31
0.0
  0
LINE
  5
BF
100
AcDbEntity
  8
0
 62
0
370
-1
 48
1.0
  6
BYLAYER
100
AcDbLine
 10
157.2050000000000125
 20
66.7176999999999936
 30
0.0
 11
157.2050000000000125
 21
52.7184000000000026
 31
0.0
  0
LINE
  5
C0
100
AcDbEntity
  8
0
 62
0
370
-1
 48
1.0
  6
BYLAYER
100
AcDbLine
 10
157.2050000000000125
 20
52.7184000000000026
 30
0.0
 11
143.2059999999999889
 21
52.7184000000000026
 31
0.0
  0
LINE
  5
C1
100
AcDbEntity
  8
0
 62
0
370
-1
 48
1.0
  6
BYLAYER
100
AcDbLine
 10
143.2059999999999889
 20
52.7184000000000026
 30
0.0
 11
143.2059999999999889
 21
66.7176999999999936
 31
0.0
  0
LINE
  5
C2
100
AcDbEntity
  8
0
 62
0
370
-1
 48
1.0
  6
BYLAYER
100
AcDbLine
 10
162.2560000000000002
 20
66.7176999999999936
 30
0.0
 11
176.2549999999999955
 21
66.7176999999999936
 31
0.0
  0
LINE
  5
C3
100
AcDbEntity
  8
0
 62
0
370
-1
 48
1.0
  6
BYLAYER
100
AcDbLine
 10
176.2549999999999955
 20
66.7176999999999936
 30
0.0
 11
176.2549999999999955
 21
52.7184000000000026
 31
0.0
  0
LINE
  5
C4
100
AcDbEntity
  8
0
 62
0
370
-1
 48
1.0
  6
BYLAYER
100
AcDbLine
 10
176.2549999999999955
 20
52.7184000000000026
 30
0.0
 11
162.2560000000000002
 21
52.7184000000000026
 31
0.0
  0
LINE
  5
C5
100
AcDbEntity
  8
0
 62
0
370
-1
 48
1.0
  6
BYLAYER
100
AcDbLine
 10
162.2560000000000002
 20
52.7184000000000026
 30
0.0
 11
162.2560000000000002
 21
66.7176999999999936
 31
0.0
  0
LINE
  5
C6
100
AcDbEntity
  8
0
 62
0
370
-1
 48
1.0
  6
BYLAYER
100
AcDbLine
 10
181.3060000000000116
 20
66.7176999999999936
 30
0.0
 11
195.3050000000000068
 21
66.7176999999999936
 31
0.0
  0
LINE
  5
C7
100
AcDbEntity
  8
0
 62
0
370
-1
 48
1.0
  6
BYLAYER
100
AcDbLine
 10
195.3050000000000068
 20
66.7176999999999936
 30
0.0
 11
195.3050000000000068
 21
52.7184000000000026
 31
0.0
  0
LINE
  5
C8
100
AcDbEntity
  8
0
 62
0
370
-1
 48
1.0
  6
BYLAYER
100
AcDbLine
 10
195.3050000000000068
 20
52.7184000000000026
 30
0.0
 11
181.3060000000000116
 21
52.7184000000000026
 31
0.0
  0
LINE
  5
C9
100
AcDbEntity
  8
0
 62
0
370
-1
 48
1.0
  6
BYLAYER
100
AcDbLine
 10
181.3060000000000116
 20
52.7184000000000026
 30
0.0
 11
181.3060000000000116
 21
66.7176999999999936
 31
0.0
  0
LINE
  5
CA
100
AcDbEntity
  8
0
 62
0
370
-1
 48
1.0
  6
BYLAYER
100
AcDbLine
 10
200.3559999999999945
 20
66.7176999999999936
 30
0.0
 11
214.3549999999999898
 21
66.7176999999999936
 31
0.0
  0
LINE
  5
CB
100
AcDbEntity
  8
0
 62
0
370
-1
 48
1.0
  6
BYLAYER
100
AcDbLine
 10
214.3549999999999898
 20
66.7176999999999936
 30
0.0
 11
214.3549999999999898
 21
52.7184000000000026
 31
0.0
  0
LINE
  5
CC
100
AcDbEntity
  8
0
 62
0
370
-1
 48
1.0
  6
BYLAYER
100
AcDbLine
 10
214.3549999999999898
 20
52.7184000000000026
 30
0.0
 11
200.3559999999999945
 21
52.7184000000000026
 31
0.0
  0
LINE
  5
CD
100
AcDbEntity
  8
0
 62
0
370
-1
 48
1.0
  6
BYLAYER
100
AcDbLine
 10
200.3559999999999945
 20
52.7184000000000026
 30
0.0
 11
200.3559999999999945
 21
66.7176999999999936
 31
0.0
  0
LINE
  5
CE
100
AcDbEntity
  8
0
 62
0
370
-1
 48
1.0
  6
BYLAYER
100
AcDbLine
 10
219.4060000000000059
 20
66.7176999999999936
 30
0.0
 11
233.4050000000000011
 21
66.7176999999999936
 31
0.0
  0
LINE
  5
CF
100
AcDbEntity
  8
0
 62
0
370
-1
 48
1.0
  6
BYLAYER
100
AcDbLine
 10
233.4050000000000011
 20
66.7176999999999936
 30
0.0
 11
233.4050000000000011
 21
52.7184000000000026
 31
0.0
  0
LINE
  5
D0
100
AcDbEntity
  8
0
 62
0
370
-1
 48
1.0
  6
BYLAYER
100
AcDbLine
 10
233.4050000000000011
 20
52.7184000000000026
 30
0.0
 11
219.4060000000000059
 21
52.7184000000000026
 31
0.0
  0
LINE
  5
D1
100
AcDbEntity
  8
0
 62
0
370
-1
 48
1.0
  6
BYLAYER
100
AcDbLine
 10
219.4060000000000059
 20
52.7184000000000026
 30
0.0
 11
219.4060000000000059
 21
66.7176999999999936
 31
0.0
  0
LINE
  5
D2
100
AcDbEntity
  8
0
 62
0
370
-1
 48
1.0
  6
BYLAYER
100
AcDbLine
 10
238.4559999999999889
 20
66.7176999999999936
 30
0.0
 11
252.4550000000000125
 21
66.7176999999999936
 31
0.0
  0
LINE
  5
D3
100
AcDbEntity
  8
0
 62
0
370
-1
 48
1.0
  6
BYLAYER
100
AcDbLine
 10
252.4550000000000125
 20
66.7176999999999936
 30
0.0
 11
252.4550000000000125
 21
52.7184000000000026
 31
0.0
  0
LINE
  5
D4
100
AcDbEntity
  8
0
 62
0
370
-1
 48
1.0
  6
BYLAYER
100
AcDbLine
 10
252.4550000000000125
 20
52.7184000000000026
 30
0.0
 11
238.4559999999999889
 21
52.7184000000000026
 31
0.0
  0
LINE
  5
D5
100
AcDbEntity
  8
0
 62
0
370
-1
 48
1.0
  6
BYLAYER
100
AcDbLine
 10
238.4559999999999889
 20
52.7184000000000026
 30
0.0
 11
238.4559999999999889
 21
66.7176999999999936
 31
0.0
  0
LINE
  5
D6
100
AcDbEntity
  8
0
 62
0
370
-1
 48
1.0
  6
BYLAYER
100
AcDbLine
 10
269.4119999999999777
 20
66.7176999999999936
 30
0.0
 11
283.4110000000000014
 21
66.7176999999999936
 31
0.0
  0
LINE
  5
D7
100
AcDbEntity
  8
0
 62
0
370
-1
 48
1.0
  6
BYLAYER
100
AcDbLine
 10
283.4110000000000014
 20
66.7176999999999936
 30
0.0
 11
283.4110000000000014
 21
52.7184000000000026
 31
0.0
  0
LINE
  5
D8
100
AcDbEntity
  8
0
 62
0
370
-1
 48
1.0
  6
BYLAYER
100
AcDbLine
 10
283.4110000000000014
 20
52.7184000000000026
 30
0.0
 11
269.4119999999999777
 21
52.7184000000000026
 31
0.0
  0
LINE
  5
D9
100
AcDbEntity
  8
0
 62
0
370
-1
 48
1.0
  6
BYLAYER
100
AcDbLine
 10
269.4119999999999777
 20
52.7184000000000026
 30
0.0
 11
269.4119999999999777
 21
66.7176999999999936
 31
0.0
  0
LINE
  5
DA
100
AcDbEntity
  8
0
 62
0
370
-1
 48
1.0
  6
BYLAYER
100
AcDbLine
 10
19.3807000000000009
 20
85.7677000000000049
 30
0.0
 11
33.3802000000000021
 21
85.7677000000000049
 31
0.0
  0
LINE
  5
DB
100
AcDbEntity
  8
0
 62
0
370
-1
 48
1.0
  6
BYLAYER
100
AcDbLine
 10
33.3802000000000021
 20
85.7677000000000049
 30
0.0
 11
33.3802000000000021
 21
71.7683999999999997
 31
0.0
  0
LINE
  5
DC
100
AcDbEntity
  8
0
 62
0
370
-1
 48
1.0
  6
BYLAYER
100
AcDbLine
 10
33.3802000000000021
 20
71.7683999999999997
 30
0.0
 11
19.3807000000000009
 21
71.7683999999999997
 31
0.0
  0
LINE
  5
DD
100
AcDbEntity
  8
0
 62
0
370
-1
 48
1.0
  6
BYLAYER
100
AcDbLine
 10
19.3807000000000009
 20
71.7683999999999997
 30
0.0
 11
19.3807000000000009
 21
85.7677000000000049
 31
0.0
  0
LINE
  5
DE
100
AcDbEntity
  8
0
 62
0
370
-1
 48
1.0
  6
BYLAYER
100
AcDbLine
 10
43.1933999999999969
 20
85.7677000000000049
 30
0.0
 11
57.1940999999999988
 21
85.7677000000000049
 31
0.0
  0
LINE
  5
DF
100
AcDbEntity
  8
0
 62
0
370
-1
 48
1.0
  6
BYLAYER
100
AcDbLine
 10
57.1940999999999988
 20
85.7677000000000049
 30
0.0
 11
57.1940999999999988
 21
71.7683999999999997
 31
0.0
  0
LINE
  5
E0
100
AcDbEntity
  8
0
 62
0
370
-1
 48
1.0
  6
BYLAYER
100
AcDbLine
 10
57.1940999999999988
 20
71.7683999999999997
 30
0.0
 11
43.1933999999999969
 21
71.7683999999999997
 31
0.0
  0
LINE
  5
E1
100
AcDbEntity
  8
0
 62
0
370
-1
 48
1.0
  6
BYLAYER
100
AcDbLine
 10
43.1933999999999969
 20
71.7683999999999997
 30
0.0
 11
43.1933999999999969
 21
85.7677000000000049
 31
0.0
  0
LINE
  5
E2
100
AcDbEntity
  8
0
 62
0
370
-1
 48
1.0
  6
BYLAYER
100
AcDbLine
 10
62.2434000000000012
 20
85.7677000000000049
 30
0.0
 11
76.2441000000000031
 21
85.7677000000000049
 31
0.0
  0
LINE
  5
E3
100
AcDbEntity
  8
0
 62
0
370
-1
 48
1.0
  6
BYLAYER
100
AcDbLine
 10
76.2441000000000031
 20
85.7677000000000049
 30
0.0
 11
76.2441000000000031
 21
71.7683999999999997
 31
0.0
  0
LINE
  5
E4
100
AcDbEntity
  8
0
 62
0
370
-1
 48
1.0
  6
BYLAYER
100
AcDbLine
 10
76.2441000000000031
 20
71.7683999999999997
 30
0.0
 11
62.2434000000000012
 21
71.7683999999999997
 31
0.0
  0
LINE
  5
E5
100
AcDbEntity
  8
0
 62
0
370
-1
 48
1.0
  6
BYLAYER
100
AcDbLine
 10
62.2434000000000012
 20
71.7683999999999997
 30
0.0
 11
62.2434000000000012
 21
85.7677000000000049
 31
0.0
  0
LINE
  5
E6
100
AcDbEntity
  8
0
 62
0
370
-1
 48
1.0
  6
BYLAYER
100
AcDbLine
 10
81.2934000000000054
 20
85.7677000000000049
 30
0.0
 11
95.2941000000000003
 21
85.7677000000000049
 31
0.0
  0
LINE
  5
E7
100
AcDbEntity
  8
0
 62
0
370
-1
 48
1.0
  6
BYLAYER
100
AcDbLine
 10
95.2941000000000003
 20
85.7677000000000049
 30
0.0
 11
95.2941000000000003
 21
71.7683999999999997
 31
0.0
  0
LINE
  5
E8
100
AcDbEntity
  8
0
 62
0
370
-1
 48
1.0
  6
BYLAYER
100
AcDbLine
 10
95.2941000000000003
 20
71.7683999999999997
 30
0.0
 11
81.2934000000000054
 21
71.7683999999999997
 31
0.0
  0
LINE
  5
E9
100
AcDbEntity
  8
0
 62
0
370
-1
 48
1.0
  6
BYLAYER
100
AcDbLine
 10
81.2934000000000054
 20
71.7683999999999997
 30
0.0
 11
81.2934000000000054
 21
85.7677000000000049
 31
0.0
  0
LINE
  5
EA
100
AcDbEntity
  8
0
 62
0
370
-1
 48
1.0
  6
BYLAYER
100
AcDbLine
 10
100.3430000000000035
 20
85.7677000000000049
 30
0.0
 11
114.3439999999999941
 21
85.7677000000000049
 31
0.0
  0
LINE
  5
EB
100
AcDbEntity
  8
0
 62
0
370
-1
 48
1.0
  6
BYLAYER
100
AcDbLine
 10
114.3439999999999941
 20
85.7677000000000049
 30
0.0
 11
114.3439999999999941
 21
71.7683999999999997
 31
0.0
  0
LINE
  5
EC
100
AcDbEntity
  8
0
 62
0
370
-1
 48
1.0
  6
BYLAYER
100
AcDbLine
 10
114.3439999999999941
 20
71.7683999999999997
 30
0.0
 11
100.3430000000000035
 21
71.7683999999999997
 31
0.0
  0
LINE
  5
ED
100
AcDbEntity
  8
0
 62
0
370
-1
 48
1.0
  6
BYLAYER
100
AcDbLine
 10
100.3430000000000035
 20
71.7683999999999997
 30
0.0
 11
100.3430000000000035
 21
85.7677000000000049
 31
0.0
  0
LINE
  5
EE
100
AcDbEntity
  8
0
 62
0
370
-1
 48
1.0
  6
BYLAYER
100
AcDbLine
 10
119.3930000000000007
 20
85.7677000000000049
 30
0.0
 11
133.3940000000000055
 21
85.7677000000000049
 31
0.0
  0
LINE
  5
EF
100
AcDbEntity
  8
0
 62
0
370
-1
 48
1.0
  6
BYLAYER
100
AcDbLine
 10
133.3940000000000055
 20
85.7677000000000049
 30
0.0
 11
133.3940000000000055
 21
71.7683999999999997
 31
0.0
  0
LINE
  5
F0
100
AcDbEntity
  8
0
 62
0
370
-1
 48
1.0
  6
BYLAYER
100
AcDbLine
 10
133.3940000000000055
 20
71.7683999999999997
 30
0.0
 11
119.3930000000000007
 21
71.7683999999999997
 31
0.0
  0
LINE
  5
F1
100
AcDbEntity
  8
0
 62
0
370
-1
 48
1.0
  6
BYLAYER
100
AcDbLine
 10
119.3930000000000007
 20
71.7683999999999997
 30
0.0
 11
119.3930000000000007
 21
85.7677000000000049
 31
0.0
  0
LINE
  5
F2
100
AcDbEntity
  8
0
 62
0
370
-1
 48
1.0
  6
BYLAYER
100
AcDbLine
 10
138.4430000000000121
 20
85.7677000000000049
 30
0.0
 11
152.4439999999999884
 21
85.7677000000000049
 31
0.0
  0
LINE
  5
F3
100
AcDbEntity
  8
0
 62
0
370
-1
 48
1.0
  6
BYLAYER
100
AcDbLine
 10
152.4439999999999884
 20
85.7677000000000049
 30
0.0
 11
152.4439999999999884
 21
71.7683999999999997
 31
0.0
  0
LINE
  5
F4
100
AcDbEntity
  8
0
 62
0
370
-1
 48
1.0
  6
BYLAYER
100
AcDbLine
 10
152.4439999999999884
 20
71.7683999999999997
 30
0.0
 11
138.4430000000000121
 21
71.7683999999999997
 31
0.0
  0
LINE
  5
F5
100
AcDbEntity
  8
0
 62
0
370
-1
 48
1.0
  6
BYLAYER
100
AcDbLine
 10
138.4430000000000121
 20
71.7683999999999997
 30
0.0
 11
138.4430000000000121
 21
85.7677000000000049
 31
0.0
  0
LINE
  5
F6
100
AcDbEntity
  8
0
 62
0
370
-1
 48
1.0
  6
BYLAYER
100
AcDbLine
 10
157.492999999999995
 20
85.7677000000000049
 30
0.0
 11
171.4939999999999998
 21
85.7677000000000049
 31
0.0
  0
LINE
  5
F7
100
AcDbEntity
  8
0
 62
0
370
-1
 48
1.0
  6
BYLAYER
100
AcDbLine
 10
171.4939999999999998
 20
85.7677000000000049
 30
0.0
 11
171.4939999999999998
 21
71.7683999999999997
 31
0.0
  0
LINE
  5
F8
100
AcDbEntity
  8
0
 62
0
370
-1
 48
1.0
  6
BYLAYER
100
AcDbLine
 10
171.4939999999999998
 20
71.7683999999999997
 30
0.0
 11
157.492999999999995
 21
71.7683999999999997
 31
0.0
  0
LINE
  5
F9
100
AcDbEntity
  8
0
 62
0
370
-1
 48
1.0
  6
BYLAYER
100
AcDbLine
 10
157.492999999999995
 20
71.7683999999999997
 30
0.0
 11
157.492999999999995
 21
85.7677000000000049
 31
0.0
  0
LINE
  5
FA
100
AcDbEntity
  8
0
 62
0
370
-1
 48
1.0
  6
BYLAYER
100
AcDbLine
 10
176.5430000000000064
 20
85.7677000000000049
 30
0.0
 11
190.5440000000000111
 21
85.7677000000000049
 31
0.0
  0
LINE
  5
FB
100
AcDbEntity
  8
0
 62
0
370
-1
 48
1.0
  6
BYLAYER
100
AcDbLine
 10
190.5440000000000111
 20
85.7677000000000049
 30
0.0
 11
190.5440000000000111
 21
71.7683999999999997
 31
0.0
  0
LINE
  5
FC
100
AcDbEntity
  8
0
 62
0
370
-1
 48
1.0
  6
BYLAYER
100
AcDbLine
 10
190.5440000000000111
 20
71.7683999999999997
 30
0.0
 11
176.5430000000000064
 21
71.7683999999999997
 31
0.0
  0
LINE
  5
FD
100
AcDbEntity
  8
0
 62
0
370
-1
 48
1.0
  6
BYLAYER
100
AcDbLine
 10
176.5430000000000064
 20
71.7683999999999997
 30
0.0
 11
176.5430000000000064
 21
85.7677000000000049
 31
0.0
  0
LINE
  5
FE
100
AcDbEntity
  8
0
 62
0
370
-1
 48
1.0
  6
BYLAYER
100
AcDbLine
 10
195.5929999999999893
 20
85.7677000000000049
 30
0.0
 11
209.5939999999999941
 21
85.7677000000000049
 31
0.0
  0
LINE
  5
FF
100
AcDbEntity
  8
0
 62
0
370
-1
 48
1.0
  6
BYLAYER
100
AcDbLine
 10
209.5939999999999941
 20
85.7677000000000049
 30
0.0
 11
209.5939999999999941
 21
71.7683999999999997
 31
0.0
  0
LINE
  5
100
100
AcDbEntity
  8
0
 62
0
370
-1
 48
1.0
  6
BYLAYER
100
AcDbLine
 10
209.5939999999999941
 20
71.7683999999999997
 30
0.0
 11
195.5929999999999893
 21
71.7683999999999997
 31
0.0
  0
LINE
  5
101
100
AcDbEntity
  8
0
 62
0
370
-1
 48
1.0
  6
BYLAYER
100
AcDbLine
 10
195.5929999999999893
 20
71.7683999999999997
 30
0.0
 11
195.5929999999999893
 21
85.7677000000000049
 31
0.0
  0
LINE
  5
102
100
AcDbEntity
  8
0
 62
0
370
-1
 48
1.0
  6
BYLAYER
100
AcDbLine
 10
214.6430000000000007
 20
85.7677000000000049
 30
0.0
 11
228.6440000000000055
 21
85.7677000000000049
 31
0.0
  0
LINE
  5
103
100
AcDbEntity
  8
0
 62
0
370
-1
 48
1.0
  6
BYLAYER
100
AcDbLine
 10
228.6440000000000055
 20
85.7677000000000049
 30
0.0
 11
228.6440000000000055
 21
71.7683999999999997
 31
0.0
  0
LINE
  5
104
100
AcDbEntity
  8
0
 62
0
370
-1
 48
1.0
  6
BYLAYER
100
AcDbLine
 10
228.6440000000000055
 20
71.7683999999999997
 30
0.0
 11
214.6430000000000007
 21
71.7683999999999997
 31
0.0
  0
LINE
  5
105
100
AcDbEntity
  8
0
 62
0
370
-1
 48
1.0
  6
BYLAYER
100
AcDbLine
 10
214.6430000000000007
 20
71.7683999999999997
 30
0.0
 11
214.6430000000000007
 21
85.7677000000000049
 31
0.0
  0
LINE
  5
106
100
AcDbEntity
  8
0
 62
0
370
-1
 48
1.0
  6
BYLAYER
100
AcDbLine
 10
233.6930000000000121
 20
85.7677000000000049
 30
0.0
 11
247.6939999999999884
 21
85.7677000000000049
 31
0.0
  0
LINE
  5
107
100
AcDbEntity
  8
0
 62
0
370
-1
 48
1.0
  6
BYLAYER
100
AcDbLine
 10
247.6939999999999884
 20
85.7677000000000049
 30
0.0
 11
247.6939999999999884
 21
71.7683999999999997
 31
0.0
  0
LINE
  5
108
100
AcDbEntity
  8
0
 62
0
370
-1
 48
1.0
  6
BYLAYER
100
AcDbLine
 10
247.6939999999999884
 20
71.7683999999999997
 30
0.0
 11
233.6930000000000121
 21
71.7683999999999997
 31
0.0
  0
LINE
  5
109
100
AcDbEntity
  8
0
 62
0
370
-1
 48
1.0
  6
BYLAYER
100
AcDbLine
 10
233.6930000000000121
 20
71.7683999999999997
 30
0.0
 11
233.6930000000000121
 21
85.7677000000000049
 31
0.0
  0
LINE
  5
10A
100
AcDbEntity
  8
0
 62
0
370
-1
 48
1.0
  6
BYLAYER
100
AcDbLine
 10
252.742999999999995
 20
85.7677000000000049
 30
0.0
 11
266.7440000000000282
 21
85.7677000000000049
 31
0.0
  0
LINE
  5
10B
100
AcDbEntity
  8
0
 62
0
370
-1
 48
1.0
  6
BYLAYER
100
AcDbLine
 10
266.7440000000000282
 20
85.7677000000000049
 30
0.0
 11
266.7440000000000282
 21
71.7683999999999997
 31
0.0
  0
LINE
  5
10C
100
AcDbEntity
  8
0
 62
0
370
-1
 48
1.0
  6
BYLAYER
100
AcDbLine
 10
266.7440000000000282
 20
71.7683999999999997
 30
0.0
 11
252.742999999999995
 21
71.7683999999999997
 31
0.0
  0
LINE
  5
10D
100
AcDbEntity
  8
0
 62
0
370
-1
 48
1.0
  6
BYLAYER
100
AcDbLine
 10
252.742999999999995
 20
71.7683999999999997
 30
0.0
 11
252.742999999999995
 21
85.7677000000000049
 31
0.0
  0
LINE
  5
10E
100
AcDbEntity
  8
0
 62
0
370
-1
 48
1.0
  6
BYLAYER
100
AcDbLine
 10
276.5559999999999832
 20
85.7677000000000049
 30
0.0
 11
290.5550000000000068
 21
85.7677000000000049
 31
0.0
  0
LINE
  5
10F
100
AcDbEntity
  8
0
 62
0
370
-1
 48
1.0
  6
BYLAYER
100
AcDbLine
 10
290.5550000000000068
 20
85.7677000000000049
 30
0.0
 11
290.5550000000000068
 21
71.7683999999999997
 31
0.0
  0
LINE
  5
110
100
AcDbEntity
  8
0
 62
0
370
-1
 48
1.0
  6
BYLAYER
100
AcDbLine
 10
290.5550000000000068
 20
71.7683999999999997
 30
0.0
 11
276.5559999999999832
 21
71.7683999999999997
 31
0.0
  0
LINE
  5
111
100
AcDbEntity
  8
0
 62
0
370
-1
 48
1.0
  6
BYLAYER
100
AcDbLine
 10
276.5559999999999832
 20
71.7683999999999997
 30
0.0
 11
276.5559999999999832
 21
85.7677000000000049
 31
0.0
  0
LINE
  5
112
100
AcDbEntity
  8
0
 62
0
370
-1
 48
1.0
  6
BYLAYER
100
AcDbLine
 10
14.6181999999999999
 20
104.8179999999999978
 30
0.0
 11
28.6190999999999995
 21
104.8179999999999978
 31
0.0
  0
LINE
  5
113
100
AcDbEntity
  8
0
 62
0
370
-1
 48
1.0
  6
BYLAYER
100
AcDbLine
 10
28.6190999999999995
 20
104.8179999999999978
 30
0.0
 11
28.6190999999999995
 21
90.8183999999999969
 31
0.0
  0
LINE
  5
114
100
AcDbEntity
  8
0
 62
0
370
-1
 48
1.0
  6
BYLAYER
100
AcDbLine
 10
28.6190999999999995
 20
90.8183999999999969
 30
0.0
 11
14.6181999999999999
 21
90.8183999999999969
 31
0.0
  0
LINE
  5
115
100
AcDbEntity
  8
0
 62
0
370
-1
 48
1.0
  6
BYLAYER
100
AcDbLine
 10
14.6181999999999999
 20
90.8183999999999969
 30
0.0
 11
14.6181999999999999
 21
104.8179999999999978
 31
0.0
  0
LINE
  5
116
100
AcDbEntity
  8
0
 62
0
370
-1
 48
1.0
  6
BYLAYER
100
AcDbLine
 10
33.6681999999999988
 20
104.8179999999999978
 30
0.0
 11
47.6691000000000003
 21
104.8179999999999978
 31
0.0
  0
LINE
  5
117
100
AcDbEntity
  8
0
 62
0
370
-1
 48
1.0
  6
BYLAYER
100
AcDbLine
 10
47.6691000000000003
 20
104.8179999999999978
 30
0.0
 11
47.6691000000000003
 21
90.8183999999999969
 31
0.0
  0
LINE
  5
118
100
AcDbEntity
  8
0
 62
0
370
-1
 48
1.0
  6
BYLAYER
100
AcDbLine
 10
47.6691000000000003
 20
90.8183999999999969
 30
0.0
 11
33.6681999999999988
 21
90.8183999999999969
 31
0.0
  0
LINE
  5
119
100
AcDbEntity
  8
0
 62
0
370
-1
 48
1.0
  6
BYLAYER
100
AcDbLine
 10
33.6681999999999988
 20
90.8183999999999969
 30
0.0
 11
33.6681999999999988
 21
104.8179999999999978
 31
0.0
  0
LINE
  5
11A
100
AcDbEntity
  8
0
 62
0
370
-1
 48
1.0
  6
BYLAYER
100
AcDbLine
 10
52.7184000000000026
 20
104.8179999999999978
 30
0.0
 11
66.7190999999999974
 21
104.8179999999999978
 31
0.0
  0
LINE
  5
11B
100
AcDbEntity
  8
0
 62
0
370
-1
 48
1.0
  6
BYLAYER
100
AcDbLine
 10
66.7190999999999974
 20
104.8179999999999978
 30
0.0
 11
66.7190999999999974
 21
90.8183999999999969
 31
0.0
  0
LINE
  5
11C
100
AcDbEntity
  8
0
 62
0
370
-1
 48
1.0
  6
BYLAYER
100
AcDbLine
 10
66.7190999999999974
 20
90.8183999999999969
 30
0.0
 11
52.7184000000000026
 21
90.8183999999999969
 31
0.0
  0
LINE
  5
11D
100
AcDbEntity
  8
0
 62
0
370
-1
 48
1.0
  6
BYLAYER
100
AcDbLine
 10
52.7184000000000026
 20
90.8183999999999969
 30
0.0
 11
52.7184000000000026
 21
104.8179999999999978
 31
0.0
  0
LINE
  5
11E
100
AcDbEntity
  8
0
 62
0
370
-1
 48
1.0
  6
BYLAYER
100
AcDbLine
 10
71.7683999999999997
 20
104.8179999999999978
 30
0.0
 11
85.7690999999999946
 21
104.8179999999999978
 31
0.0
  0
LINE
  5
11F
100
AcDbEntity
  8
0
 62
0
370
-1
 48
1.0
  6
BYLAYER
100
AcDbLine
 10
85.7690999999999946
 20
104.8179999999999978
 30
0.0
 11
85.7690999999999946
 21
90.8183999999999969
 31
0.0
  0
LINE
  5
120
100
AcDbEntity
  8
0
 62
0
370
-1
 48
1.0
  6
BYLAYER
100
AcDbLine
 10
85.7690999999999946
 20
90.8183999999999969
 30
0.0
 11
71.7683999999999997
 21
90.8183999999999969
 31
0.0
  0
LINE
  5
121
100
AcDbEntity
  8
0
 62
0
370
-1
 48
1.0
  6
BYLAYER
100
AcDbLine
 10
71.7683999999999997
 20
90.8183999999999969
 30
0.0
 11
71.7683999999999997
 21
104.8179999999999978
 31
0.0
  0
LINE
  5
122
100
AcDbEntity
  8
0
 62
0
370
-1
 48
1.0
  6
BYLAYER
100
AcDbLine
 10
90.8183999999999969
 20
104.8179999999999978
 30
0.0
 11
104.8190000000000026
 21
104.8179999999999978
 31
0.0
  0
LINE
  5
123
100
AcDbEntity
  8
0
 62
0
370
-1
 48
1.0
  6
BYLAYER
100
AcDbLine
 10
104.8190000000000026
 20
104.8179999999999978
 30
0.0
 11
104.8190000000000026
 21
90.8183999999999969
 31
0.0
  0
LINE
  5
124
100
AcDbEntity
  8
0
 62
0
370
-1
 48
1.0
  6
BYLAYER
100
AcDbLine
 10
104.8190000000000026
 20
90.8183999999999969
 30
0.0
 11
90.8183999999999969
 21
90.8183999999999969
 31
0.0
  0
LINE
  5
125
100
AcDbEntity
  8
0
 62
0
370
-1
 48
1.0
  6
BYLAYER
100
AcDbLine
 10
90.8183999999999969
 20
90.8183999999999969
 30
0.0
 11
90.8183999999999969
 21
104.8179999999999978
 31
0.0
  0
LINE
  5
126
100
AcDbEntity
  8
0
 62
0
370
-1
 48
1.0
  6
BYLAYER
100
AcDbLine
 10
109.867999999999995
 20
104.8179999999999978
 30
0.0
 11
123.867999999999995
 21
104.8179999999999978
 31
0.0
  0
LINE
  5
127
100
AcDbEntity
  8
0
 62
0
370
-1
 48
1.0
  6
BYLAYER
100
AcDbLine
 10
123.867999999999995
 20
104.8179999999999978
 30
0.0
 11
123.867999999999995
 21
90.8183999999999969
 31
0.0
  0
LINE
  5
128
100
AcDbEntity
  8
0
 62
0
370
-1
 48
1.0
  6
BYLAYER
100
AcDbLine
 10
123.867999999999995
 20
90.8183999999999969
 30
0.0
 11
109.867999999999995
 21
90.8183999999999969
 31
0.0
  0
LINE
  5
129
100
AcDbEntity
  8
0
 62
0
370
-1
 48
1.0
  6
BYLAYER
100
AcDbLine
 10
109.867999999999995
 20
90.8183999999999969
 30
0.0
 11
109.867999999999995
 21
104.8179999999999978
 31
0.0
  0
LINE
  5
12A
100
AcDbEntity
  8
0
 62
0
370
-1
 48
1.0
  6
BYLAYER
100
AcDbLine
 10
128.9180000000000064
 20
104.8179999999999978
 30
0.0
 11
142.9190000000000111
 21
104.8179999999999978
 31
0.0
  0
LINE
  5
12B
100
AcDbEntity
  8
0
 62
0
370
-1
 48
1.0
  6
BYLAYER
100
AcDbLine
 10
142.9190000000000111
 20
104.8179999999999978
 30
0.0
 11
142.9190000000000111
 21
90.8183999999999969
 31
0.0
  0
LINE
  5
12C
100
AcDbEntity
  8
0
 62
0
370
-1
 48
1.0
  6
BYLAYER
100
AcDbLine
 10
142.9190000000000111
 20
90.8183999999999969
 30
0.0
 11
128.9180000000000064
 21
90.8183999999999969
 31
0.0
  0
LINE
  5
12D
100
AcDbEntity
  8
0
 62
0
370
-1
 48
1.0
  6
BYLAYER
100
AcDbLine
 10
128.9180000000000064
 20
90.8183999999999969
 30
0.0
 11
128.9180000000000064
 21
104.8179999999999978
 31
0.0
  0
LINE
  5
12E
100
AcDbEntity
  8
0
 62
0
370
-1
 48
1.0
  6
BYLAYER
100
AcDbLine
 10
147.9679999999999893
 20
104.8179999999999978
 30
0.0
 11
161.9689999999999941
 21
104.8179999999999978
 31
0.0
  0
LINE
  5
12F
100
AcDbEntity
  8
0
 62
0
370
-1
 48
1.0
  6
BYLAYER
100
AcDbLine
 10
161.9689999999999941
 20
104.8179999999999978
 30
0.0
 11
161.9689999999999941
 21
90.8183999999999969
 31
0.0
  0
LINE
  5
130
100
AcDbEntity
  8
0
 62
0
370
-1
 48
1.0
  6
BYLAYER
100
AcDbLine
 10
161.9689999999999941
 20
90.8183999999999969
 30
0.0
 11
147.9679999999999893
 21
90.8183999999999969
 31
0.0
  0
LINE
  5
131
100
AcDbEntity
  8
0
 62
0
370
-1
 48
1.0
  6
BYLAYER
100
AcDbLine
 10
147.9679999999999893
 20
90.8183999999999969
 30
0.0
 11
147.9679999999999893
 21
104.8179999999999978
 31
0.0
  0
LINE
  5
132
100
AcDbEntity
  8
0
 62
0
370
-1
 48
1.0
  6
BYLAYER
100
AcDbLine
 10
167.0180000000000007
 20
104.8179999999999978
 30
0.0
 11
181.0190000000000055
 21
104.8179999999999978
 31
0.0
  0
LINE
  5
133
100
AcDbEntity
  8
0
 62
0
370
-1
 48
1.0
  6
BYLAYER
100
AcDbLine
 10
181.0190000000000055
 20
104.8179999999999978
 30
0.0
 11
181.0190000000000055
 21
90.8183999999999969
 31
0.0
  0
LINE
  5
134
100
AcDbEntity
  8
0
 62
0
370
-1
 48
1.0
  6
BYLAYER
100
AcDbLine
 10
181.0190000000000055
 20
90.8183999999999969
 30
0.0
 11
167.0180000000000007
 21
90.8183999999999969
 31
0.0
  0
LINE
  5
135
100
AcDbEntity
  8
0
 62
0
370
-1
 48
1.0
  6
BYLAYER
100
AcDbLine
 10
167.0180000000000007
 20
90.8183999999999969
 30
0.0
 11
167.0180000000000007
 21
104.8179999999999978
 31
0.0
  0
LINE
  5
136
100
AcDbEntity
  8
0
 62
0
370
-1
 48
1.0
  6
BYLAYER
100
AcDbLine
 10
186.0680000000000121
 20
104.8179999999999978
 30
0.0
 11
200.0689999999999884
 21
104.8179999999999978
 31
0.0
  0
LINE
  5
137
100
AcDbEntity
  8
0
 62
0
370
-1
 48
1.0
  6
BYLAYER
100
AcDbLine
 10
200.0689999999999884
 20
104.8179999999999978
 30
0.0
 11
200.0689999999999884
 21
90.8183999999999969
 31
0.0
  0
LINE
  5
138
100
AcDbEntity
  8
0
 62
0
370
-1
 48
1.0
  6
BYLAYER
100
AcDbLine
 10
200.0689999999999884
 20
90.8183999999999969
 30
0.0
 11
186.0680000000000121
 21
90.8183999999999969
 31
0.0
  0
LINE
  5
139
100
AcDbEntity
  8
0
 62
0
370
-1
 48
1.0
  6
BYLAYER
100
AcDbLine
 10
186.0680000000000121
 20
90.8183999999999969
 30
0.0
 11
186.0680000000000121
 21
104.8179999999999978
 31
0.0
  0
LINE
  5
13A
100
AcDbEntity
  8
0
 62
0
370
-1
 48
1.0
  6
BYLAYER
100
AcDbLine
 10
205.117999999999995
 20
104.8179999999999978
 30
0.0
 11
219.1189999999999998
 21
104.8179999999999978
 31
0.0
  0
LINE
  5
13B
100
AcDbEntity
  8
0
 62
0
370
-1
 48
1.0
  6
BYLAYER
100
AcDbLine
 10
219.1189999999999998
 20
104.8179999999999978
 30
0.0
 11
219.1189999999999998
 21
90.8183999999999969
 31
0.0
  0
LINE
  5
13C
100
AcDbEntity
  8
0
 62
0
370
-1
 48
1.0
  6
BYLAYER
100
AcDbLine
 10
219.1189999999999998
 20
90.8183999999999969
 30
0.0
 11
205.117999999999995
 21
90.8183999999999969
 31
0.0
  0
LINE
  5
13D
100
AcDbEntity
  8
0
 62
0
370
-1
 48
1.0
  6
BYLAYER
100
AcDbLine
 10
205.117999999999995
 20
90.8183999999999969
 30
0.0
 11
205.117999999999995
 21
104.8179999999999978
 31
0.0
  0
LINE
  5
13E
100
AcDbEntity
  8
0
 62
0
370
-1
 48
1.0
  6
BYLAYER
100
AcDbLine
 10
224.1680000000000064
 20
104.8179999999999978
 30
0.0
 11
238.1690000000000111
 21
104.8179999999999978
 31
0.0
  0
LINE
  5
13F
100
AcDbEntity
  8
0
 62
0
370
-1
 48
1.0
  6
BYLAYER
100
AcDbLine
 10
238.1690000000000111
 20
104.8179999999999978
 30
0.0
 11
238.1690000000000111
 21
90.8183999999999969
 31
0.0
  0
LINE
  5
140
100
AcDbEntity
  8
0
 62
0
370
-1
 48
1.0
  6
BYLAYER
100
AcDbLine
 10
238.1690000000000111
 20
90.8183999999999969
 30
0.0
 11
224.1680000000000064
 21
90.8183999999999969
 31
0.0
  0
LINE
  5
141
100
AcDbEntity
  8
0
 62
0
370
-1
 48
1.0
  6
BYLAYER
100
AcDbLine
 10
224.1680000000000064
 20
90.8183999999999969
 30
0.0
 11
224.1680000000000064
 21
104.8179999999999978
 31
0.0
  0
LINE
  5
142
100
AcDbEntity
  8
0
 62
0
370
-1
 48
1.0
  6
BYLAYER
100
AcDbLine
 10
243.2179999999999893
 20
104.8179999999999978
 30
0.0
 11
257.2189999999999941
 21
104.8179999999999978
 31
0.0
  0
LINE
  5
143
100
AcDbEntity
  8
0
 62
0
370
-1
 48
1.0
  6
BYLAYER
100
AcDbLine
 10
257.2189999999999941
 20
104.8179999999999978
 30
0.0
 11
257.2189999999999941
 21
90.8183999999999969
 31
0.0
  0
LINE
  5
144
100
AcDbEntity
  8
0
 62
0
370
-1
 48
1.0
  6
BYLAYER
100
AcDbLine
 10
257.2189999999999941
 20
90.8183999999999969
 30
0.0
 11
243.2179999999999893
 21
90.8183999999999969
 31
0.0
  0
LINE
  5
145
100
AcDbEntity
  8
0
 62
0
370
-1
 48
1.0
  6
BYLAYER
100
AcDbLine
 10
243.2179999999999893
 20
90.8183999999999969
 30
0.0
 11
243.2179999999999893
 21
104.8179999999999978
 31
0.0
  0
LINE
  5
146
100
AcDbEntity
  8
0
 62
0
370
-1
 48
1.0
  6
BYLAYER
100
AcDbLine
 10
262.2679999999999723
 20
104.8179999999999978
 30
0.0
 11
276.2690000000000055
 21
104.8179999999999978
 31
0.0
  0
LINE
  5
147
100
AcDbEntity
  8
0
 62
0
370
-1
 48
1.0
  6
BYLAYER
100
AcDbLine
 10
276.2690000000000055
 20
104.8179999999999978
 30
0.0
 11
276.2690000000000055
 21
90.8183999999999969
 31
0.0
  0
LINE
  5
148
100
AcDbEntity
  8
0
 62
0
370
-1
 48
1.0
  6
BYLAYER
100
AcDbLine
 10
276.2690000000000055
 20
90.8183999999999969
 30
0.0
 11
262.2679999999999723
 21
90.8183999999999969
 31
0.0
  0
LINE
  5
149
100
AcDbEntity
  8
0
 62
0
370
-1
 48
1.0
  6
BYLAYER
100
AcDbLine
 10
262.2679999999999723
 20
90.8183999999999969
 30
0.0
 11
262.2679999999999723
 21
104.8179999999999978
 31
0.0
  0
LINE
  5
14A
100
AcDbEntity
  8
0
 62
0
370
-1
 48
1.0
  6
BYLAYER
100
AcDbLine
 10
281.3179999999999836
 20
104.8179999999999978
 30
0.0
 11
295.3190000000000168
 21
104.8179999999999978
 31
0.0
  0
LINE
  5
14B
100
AcDbEntity
  8
0
 62
0
370
-1
 48
1.0
  6
BYLAYER
100
AcDbLine
 10
295.3190000000000168
 20
104.8179999999999978
 30
0.0
 11
295.3190000000000168
 21
90.8183999999999969
 31
0.0
  0
LINE
  5
14C
100
AcDbEntity
  8
0
 62
0
370
-1
 48
1.0
  6
BYLAYER
100
AcDbLine
 10
295.3190000000000168
 20
90.8183999999999969
 30
0.0
 11
281.3179999999999836
 21
90.8183999999999969
 31
0.0
  0
LINE
  5
14D
100
AcDbEntity
  8
0
 62
0
370
-1
 48
1.0
  6
BYLAYER
100
AcDbLine
 10
281.3179999999999836
 20
90.8183999999999969
 30
0.0
 11
281.3179999999999836
 21
104.8179999999999978
 31
0.0
  0
ENDSEC
  0
SECTION
  2
OBJECTS
  0
DICTIONARY
  5
C
100
AcDbDictionary
280
0
281
1
  3
ACAD_GROUP
350
D
  3
ACAD_LAYOUT
350
1A
  3
ACAD_MLINESTYLE
350
17
  3
ACAD_PLOTSETTINGS
350
19
  3
ACAD_PLOTSTYLENAME
350
E
  3
AcDbVariableDictionary
350
14E
  3
QCAD_OBJECTS
350
14F
  0
DICTIONARY
  5
D
100
AcDbDictionary
280
0
281
1
  0
ACDBDICTIONARYWDFLT
  5
E
100
AcDbDictionary
281
1
  3
Normal
350
F
100
AcDbDictionaryWithDefault
340
F
  0
ACDBPLACEHOLDER
  5
F
  0
DICTIONARY
  5
17
100
AcDbDictionary
280
0
281
1
  3
Standard
350
18
  0
MLINESTYLE
  5
18
100
AcDbMlineStyle
  2
STANDARD
 70
0
  3

 62
256
 51
90.0
 52
90.0
 71
2
 49
0.5
 62
256
  6
BYLAYER
 49
-0.5
 62
256
  6
BYLAYER
  0
DICTIONARY
  5
19
100
AcDbDictionary
280
0
281
1
  0
DICTIONARY
  5
1A
100
AcDbDictionary
281
1
  3
Layout1
350
1E
  3
Layout2
350
26
  3
Model
350
22
  0
LAYOUT
  5
1E
100
AcDbPlotSettings
  1

  2
none_device
  4

  6

 40
0.0
 41
0.0
 42
0.0
 43
0.0
 44
0.0
 45
0.0
 46
0.0
 47
0.0
 48
0.0
 49
0.0
140
0.0
141
0.0
142
1.0
143
1.0
 70
688
 72
0
 73
0
 74
5
  7

 75
16
147
1.0
148
0.0
149
0.0
100
AcDbLayout
  1
Layout1
 70
1
 71
1
 10
0.0
 20
0.0
 11
420.0
 21
297.0
 12
0.0
 22
0.0
 32
0.0
 14
100000000000000000000.0
 24
100000000000000000000.0
 34
100000000000000000000.0
 15
-100000000000000000000.0
 25
-100000000000000000000.0
 35
-100000000000000000000.0
146
0.0
 13
0.0
 23
0.0
 33
0.0
 16
1.0
 26
0.0
 36
0.0
 17
0.0
 27
1.0
 37
0.0
 76
0
330
1B
  0
LAYOUT
  5
22
100
AcDbPlotSettings
  1

  2
none_device
  4

  6

 40
0.0
 41
0.0
 42
0.0
 43
0.0
 44
0.0
 45
0.0
 46
0.0
 47
0.0
 48
0.0
 49
0.0
140
0.0
141
0.0
142
1.0
143
1.0
 70
1712
 72
0
 73
0
 74
0
  7

 75
0
147
1.0
148
0.0
149
0.0
100
AcDbLayout
  1
Model
 70
1
 71
0
 10
0.0
 20
0.0
 11
12.0
 21
9.0
 12
0.0
 22
0.0
 32
0.0
 14
0.0
 24
0.0
 34
0.0
 15
0.0
 25
0.0
 35
0.0
146
0.0
 13
0.0
 23
0.0
 33
0.0
 16
1.0
 26
0.0
 36
0.0
 17
0.0
 27
1.0
 37
0.0
 76
0
330
1F
  0
LAYOUT
  5
26
100
AcDbPlotSettings
  1

  2
none_device
  4

  6

 40
0.0
 41
0.0
 42
0.0
 43
0.0
 44
0.0
 45
0.0
 46
0.0
 47
0.0
 48
0.0
 49
0.0
140
0.0
141
0.0
142
1.0
143
1.0
 70
688
 72
0
 73
0
 74
5
  7

 75
16
147
1.0
148
0.0
149
0.0
100
AcDbLayout
  1
Layout2
 70
1
 71
2
 10
0.0
 20
0.0
 11
12.0
 21
9.0
 12
0.0
 22
0.0
 32
0.0
 14
0.0
 24
0.0
 34
0.0
 15
0.0
 25
0.0
 35
0.0
146
0.0
 13
0.0
 23
0.0
 33
0.0
 16
1.0
 26
0.0
 36
0.0
 17
0.0
 27
1.0
 37
0.0
 76
0
330
23
  0
DICTIONARY
  5
14E
100
AcDbDictionary
281
1
  3
DIMASSOC
350
151
  3
HIDETEXT
350
150
  0
DICTIONARYVAR
  5
150
100
DictionaryVariables
280
0
  1
2
  0
DICTIONARYVAR
  5
151
100
DictionaryVariables
280
0
  1
1
  0
DICTIONARY
  5
14F
100
AcDbDictionary
281
1
  3
ColorSettings/BackgroundColor
350
152
  3
ColorSettings/ColorMode
350
153
  3
Grid/DisplayGrid00
350
154
  3
Grid/DisplayGrid01
350
155
  3
Grid/DisplayGrid02
350
156
  3
Grid/DisplayGrid03
350
157
  3
Grid/GridSpacingX00
350
158
  3
Grid/GridSpacingX01
350
159
  3
Grid/GridSpacingX02
350
15A
  3
Grid/GridSpacingX03
350
15B
  3
Grid/GridSpacingY00
350
15C
  3
Grid/GridSpacingY01
350
15D
  3
Grid/GridSpacingY02
350
15E
  3
Grid/GridSpacingY03
350
15F
  3
Grid/IsometricGrid00
350
160
  3
Grid/IsometricGrid01
350
161
  3
Grid/IsometricGrid02
350
162
  3
Grid/IsometricGrid03
350
163
  3
Grid/IsometricProjection00
350
164
  3
Grid/IsometricProjection01
350
165
  3
Grid/IsometricProjection02
350
166
  3
Grid/IsometricProjection03
350
167
  3
Grid/MetaGridSpacingX00
350
168
  3
Grid/MetaGridSpacingX01
350
169
  3
Grid/MetaGridSpacingX02
350
16A
  3
Grid/MetaGridSpacingX03
350
16B
  3
Grid/MetaGridSpacingY00
350
16C
  3
Grid/MetaGridSpacingY01
350
16D
  3
Grid/MetaGridSpacingY02
350
16E
  3
Grid/MetaGridSpacingY03
350
16F
  3
MultiPageSettings/Columns
350
170
  3
MultiPageSettings/GlueMarginsBottom
350
171
  3
MultiPageSettings/GlueMarginsLeft
350
172
  3
MultiPageSettings/GlueMarginsRight
350
173
  3
MultiPageSettings/GlueMarginsTop
350
174
  3
MultiPageSettings/PrintCropMarks
350
175
  3
MultiPageSettings/Rows
350
176
  3
PageSettings/OffsetX
350
177
  3
PageSettings/OffsetY
350
178
  3
PageSettings/PageOrientation
350
179
  3
PageSettings/PaperHeight
350
17A
  3
PageSettings/PaperWidth
350
17B
  3
PageSettings/Scale
350
17C
  3
PageSettings/ShowPaperBorders
350
17D
  3
UnitSettings/PaperUnit
350
17E
  3
ViewportCenter
350
17F
  3
ViewportHeight
350
180
  3
ViewportWidth
350
181
  0
XRECORD
  5
152
330
14F
100
AcDbXrecord
280
1
1000
White
  0
XRECORD
  5
153
330
14F
100
AcDbXrecord
280
1
1000
FullColor
  0
XRECORD
  5
154
330
14F
100
AcDbXrecord
280
1
290
1
  0
XRECORD
  5
155
330
14F
100
AcDbXrecord
280
1
290
1
  0
XRECORD
  5
156
330
14F
100
AcDbXrecord
280
1
290
1
  0
XRECORD
  5
157
330
14F
100
AcDbXrecord
280
1
290
1
  0
XRECORD
  5
158
330
14F
100
AcDbXrecord
280
1
1000
auto
  0
XRECORD
  5
159
330
14F
100
AcDbXrecord
280
1
1000
auto
  0
XRECORD
  5
15A
330
14F
100
AcDbXrecord
280
1
1000
auto
  0
XRECORD
  5
15B
330
14F
100
AcDbXrecord
280
1
1000
auto
  0
XRECORD
  5
15C
330
14F
100
AcDbXrecord
280
1
1000
auto
  0
XRECORD
  5
15D
330
14F
100
AcDbXrecord
280
1
1000
auto
  0
XRECORD
  5
15E
330
14F
100
AcDbXrecord
280
1
1000
auto
  0
XRECORD
  5
15F
330
14F
100
AcDbXrecord
280
1
1000
auto
  0
XRECORD
  5
160
330
14F
100
AcDbXrecord
280
1
290
0
  0
XRECORD
  5
161
330
14F
100
AcDbXrecord
280
1
290
0
  0
XRECORD
  5
162
330
14F
100
AcDbXrecord
280
1
290
0
  0
XRECORD
  5
163
330
14F
100
AcDbXrecord
280
1
290
0
  0
XRECORD
  5
164
330
14F
100
AcDbXrecord
280
1
 90
65537
  0
XRECORD
  5
165
330
14F
100
AcDbXrecord
280
1
 90
65537
  0
XRECORD
  5
166
330
14F
100
AcDbXrecord
280
1
 90
65537
  0
XRECORD
  5
167
330
14F
100
AcDbXrecord
280
1
 90
65537
  0
XRECORD
  5
168
330
14F
100
AcDbXrecord
280
1
1000
auto
  0
XRECORD
  5
169
330
14F
100
AcDbXrecord
280
1
1000
auto
  0
XRECORD
  5
16A
330
14F
100
AcDbXrecord
280
1
1000
auto
  0
XRECORD
  5
16B
330
14F
100
AcDbXrecord
280
1
1000
auto
  0
XRECORD
  5
16C
330
14F
100
AcDbXrecord
280
1
1000
auto
  0
XRECORD
  5
16D
330
14F
100
AcDbXrecord
280
1
1000
auto
  0
XRECORD
  5
16E
330
14F
100
AcDbXrecord
280
1
1000
auto
  0
XRECORD
  5
16F
330
14F
100
AcDbXrecord
280
1
1000
auto
  0
XRECORD
  5
170
330
14F
100
AcDbXrecord
280
1
 90
1
  0
XRECORD
  5
171
330
14F
100
AcDbXrecord
280
1
 40
0.5
  0
XRECORD
  5
172
330
14F
100
AcDbXrecord
280
1
 40
0.5
  0
XRECORD
  5
173
330
14F
100
AcDbXrecord
280
1
 40
0.5
  0
XRECORD
  5
174
330
14F
100
AcDbXrecord
280
1
 40
0.5
  0
XRECORD
  5
175
330
14F
100
AcDbXrecord
280
1
290
0
  0
XRECORD
  5
176
330
14F
100
AcDbXrecord
280
1
 90
1
  0
XRECORD
  5
177
330
14F
100
AcDbXrecord
280
1
 40
0.0
  0
XRECORD
  5
178
330
14F
100
AcDbXrecord
280
1
 40
0.0
  0
XRECORD
  5
179
330
14F
100
AcDbXrecord
280
1
1000
Landscape
  0
XRECORD
  5
17A
330
14F
100
AcDbXrecord
280
1
 40
297.0
  0
XRECORD
  5
17B
330
14F
100
AcDbXrecord
280
1
 40
210.0
  0
XRECORD
  5
17C
330
14F
100
AcDbXrecord
280
1
1000
1:1
  0
XRECORD
  5
17D
330
14F
100
AcDbXrecord
280
1
290
1
  0
XRECORD
  5
17E
330
14F
100
AcDbXrecord
280
1
 90
4
  0
XRECORD
  5
180
330
14F
100
AcDbXrecord
280
1
 40
184.3341445397956306
  0
XRECORD
  5
181
330
14F
100
AcDbXrecord
280
1
 40
511.1197096219094647
  0
ENDSEC
  0
EOF
