999
dxflib 3.12.2.0
  0
SECTION
  2
HEADER
  9
$ACADVER
  1
AC1015
  9
$HANDSEED
  5
FFFF
  9
$DIMADEC
 70
0
  9
$DIMASZ
 40
2.5
  9
$DIMAUNIT
 70
0
  9
$DIMAZIN
 70
2
  9
$DIMDEC
 70
4
  9
$DIMEXE
 40
1.25
  9
$DIMEXO
 40
0.625
  9
$DIMGAP
 40
0.625
  9
$DIMLUNIT
 70
2
  9
$DIMSCALE
 40
1.0
  9
$DIMTSZ
 40
0.0
  9
$DIMTXT
 40
2.5
  9
$DIMZIN
 70
8
  9
$DWGCODEPAGE
  3
ANSI_1252
  9
$INSUNITS
 70
4
  9
$LTSCALE
 40
1.0
  9
$MAXACTVP
 70
32
  9
$MEASUREMENT
 70
1
  9
$PDMODE
 70
0
  9
$PDSIZE
 40
0
  0
ENDSEC
  0
SECTION
  2
TABLES
  0
TABLE
  2
VPORT
  5
8
100
AcDbSymbolTable
 70
1
  0
VPORT
  5
30
100
AcDbSymbolTableRecord
100
AcDbViewportTableRecord
  2
*Active
 70
0
 10
0.0
 20
0.0
 11
1.0
 21
1.0
 12
286.3055555555554861
 22
148.5
 13
0.0
 23
0.0
 14
10.0
 24
10.0
 15
10.0
 25
10.0
 16
0.0
 26
0.0
 36
1.0
 17
0.0
 27
0.0
 37
0.0
 40
297.0
 41
1.92798353909465
 42
50.0
 43
0.0
 44
0.0
 50
0.0
 51
0.0
 71
0
 72
100
 73
1
 74
3
 75
1
 76
1
 77
0
 78
0
281
0
 65
1
110
0.0
120
0.0
130
0.0
111
1.0
121
0.0
131
0.0
112
0.0
122
1.0
132
0.0
 79
0
146
0.0
  0
ENDTAB
  0
TABLE
  2
LTYPE
  5
5
100
AcDbSymbolTable
 70
41
  0
LTYPE
  5
16
100
AcDbSymbolTableRecord
100
AcDbLinetypeTableRecord
  2
Continuous
 70
0
  3
Solid line
 72
65
 73
0
 40
0.0
  0
LTYPE
  5
31
100
AcDbSymbolTableRecord
100
AcDbLinetypeTableRecord
  2
ACAD_ISO15W100
 70
0
  3
ISO double-dash triple-dot __ __ . . . __ __ . .
 72
65
 73
10
 40
39.0000000000000071
 49
12.0
 74
0
 49
-3.0
 74
0
 49
12.0
 74
0
 49
-2.9500000000000002
 74
0
 49
0.1
 74
0
 49
-2.9000000000000004
 74
0
 49
0.1
 74
0
 49
-2.9000000000000004
 74
0
 49
0.1
 74
0
 49
-2.9500000000000002
 74
0
  0
LTYPE
  5
32
100
AcDbSymbolTableRecord
100
AcDbLinetypeTableRecord
  2
DIVIDE
 70
0
  3
Divide ____ . . ____ . . ____ . . ____ . . ____
 72
65
 73
6
 40
31.7500000000000036
 49
12.6999999999999993
 74
0
 49
-6.2999999999999998
 74
0
 49
0.1
 74
0
 49
-6.25
 74
0
 49
0.1
 74
0
 49
-6.2999999999999998
 74
0
  0
LTYPE
  5
33
100
AcDbSymbolTableRecord
100
AcDbLinetypeTableRecord
  2
ACAD_ISO10W100
 70
0
  3
ISO dash dot __ . __ . __ . __ . __ . __ . __ . 
 72
65
 73
4
 40
18.0
 49
12.0
 74
0
 49
-2.9500000000000002
 74
0
 49
0.1
 74
0
 49
-2.9500000000000002
 74
0
  0
LTYPE
  5
34
100
AcDbSymbolTableRecord
100
AcDbLinetypeTableRecord
  2
ACAD_ISO04W100
 70
0
  3
ISO long-dash dot ____ . ____ . ____ . ____ . _
 72
65
 73
4
 40
30.0
 49
24.0
 74
0
 49
-2.9500000000000002
 74
0
 49
0.1
 74
0
 49
-2.9500000000000002
 74
0
  0
LTYPE
  5
35
100
AcDbSymbolTableRecord
100
AcDbLinetypeTableRecord
  2
CENTER2
 70
0
  3
Center (.5x) ___ _ ___ _ ___ _ ___ _ ___ _ ___
 72
65
 73
4
 40
28.5750000000000028
 49
19.0500000000000007
 74
0
 49
-3.1749999999999998
 74
0
 49
3.1749999999999998
 74
0
 49
-3.1749999999999998
 74
0
  0
LTYPE
  5
36
100
AcDbSymbolTableRecord
100
AcDbLinetypeTableRecord
  2
ACAD_ISO11W100
 70
0
  3
ISO double-dash dot __ __ . __ __ . __ __ . __ _
 72
65
 73
6
 40
33.0
 49
12.0
 74
0
 49
-3.0
 74
0
 49
12.0
 74
0
 49
-2.9500000000000002
 74
0
 49
0.1
 74
0
 49
-2.9500000000000002
 74
0
  0
LTYPE
  5
37
100
AcDbSymbolTableRecord
100
AcDbLinetypeTableRecord
  2
HIDDEN2
 70
0
  3
Hidden (.5x) _ _ _ _ _ _ _ _ _ _ _ _ _ _ _ _ _ 
 72
65
 73
2
 40
4.7624999999999993
 49
3.1749999999999998
 74
0
 49
-1.5874999999999999
 74
0
  0
LTYPE
  5
38
100
AcDbSymbolTableRecord
100
AcDbLinetypeTableRecord
  2
BORDERX2
 70
0
  3
Border (2x) ____  ____  .  ____  ____  .  ___
 72
65
 73
6
 40
88.8999999999999773
 49
25.3999999999999986
 74
0
 49
-12.6999999999999993
 74
0
 49
25.3999999999999986
 74
0
 49
-12.6499999999999986
 74
0
 49
0.1
 74
0
 49
-12.6499999999999986
 74
0
  0
LTYPE
  5
39
100
AcDbSymbolTableRecord
100
AcDbLinetypeTableRecord
  2
ACAD_ISO05W100
 70
0
  3
ISO long-dash double-dot ____ .. ____ .. ____ . 
 72
65
 73
6
 40
33.0000000000000071
 49
24.0
 74
0
 49
-2.9500000000000002
 74
0
 49
0.1
 74
0
 49
-2.9000000000000004
 74
0
 49
0.1
 74
0
 49
-2.9500000000000002
 74
0
  0
LTYPE
  5
3A
100
AcDbSymbolTableRecord
100
AcDbLinetypeTableRecord
  2
DASHDOTX2
 70
0
  3
Dash dot (2x) ____  .  ____  .  ____  .  ___
 72
65
 73
4
 40
50.7999999999999972
 49
25.3999999999999986
 74
0
 49
-12.6499999999999986
 74
0
 49
0.1
 74
0
 49
-12.6499999999999986
 74
0
  0
LTYPE
  5
3B
100
AcDbSymbolTableRecord
100
AcDbLinetypeTableRecord
  2
HIDDENX2
 70
0
  3
Hidden (2x) ____ ____ ____ ____ ____ ____ ____ 
 72
65
 73
2
 40
19.0499999999999972
 49
12.6999999999999993
 74
0
 49
-6.3499999999999996
 74
0
  0
LTYPE
  5
3C
100
AcDbSymbolTableRecord
100
AcDbLinetypeTableRecord
  2
CENTERX2
 70
0
  3
Center (2x) ________  __  ________  __  _____
 72
65
 73
4
 40
101.6000000000000085
 49
63.5
 74
0
 49
-12.6999999999999993
 74
0
 49
12.6999999999999993
 74
0
 49
-12.6999999999999993
 74
0
  0
LTYPE
  5
3D
100
AcDbSymbolTableRecord
100
AcDbLinetypeTableRecord
  2
BORDER2
 70
0
  3
Border (.5x) __.__.__.__.__.__.__.__.__.__.__.
 72
65
 73
6
 40
22.2250000000000014
 49
6.3499999999999996
 74
0
 49
-3.1749999999999998
 74
0
 49
6.3499999999999996
 74
0
 49
-3.125
 74
0
 49
0.1
 74
0
 49
-3.125
 74
0
  0
LTYPE
  5
3E
100
AcDbSymbolTableRecord
100
AcDbLinetypeTableRecord
  2
DASHDOT2
 70
0
  3
Dash dot (.5x) _._._._._._._._._._._._._._._.
 72
65
 73
4
 40
12.6999999999999993
 49
6.3499999999999996
 74
0
 49
-3.125
 74
0
 49
0.1
 74
0
 49
-3.125
 74
0
  0
LTYPE
  5
3F
100
AcDbSymbolTableRecord
100
AcDbLinetypeTableRecord
  2
ACAD_ISO12W100
 70
0
  3
ISO dash double-dot __ . . __ . . __ . . __ . . 
 72
65
 73
6
 40
21.0
 49
12.0
 74
0
 49
-2.9500000000000002
 74
0
 49
0.1
 74
0
 49
-2.9000000000000004
 74
0
 49
0.1
 74
0
 49
-2.9500000000000002
 74
0
  0
LTYPE
  5
40
100
AcDbSymbolTableRecord
100
AcDbLinetypeTableRecord
  2
ACAD_ISO07W100
 70
0
  3
ISO dot . . . . . . . . . . . . . . . . . . . . 
 72
65
 73
2
 40
3.0
 49
0.1
 74
0
 49
-2.8999999999999999
 74
0
  0
LTYPE
  5
41
100
AcDbSymbolTableRecord
100
AcDbLinetypeTableRecord
  2
HIDDEN
 70
0
  3
Hidden __ __ __ __ __ __ __ __ __ __ __ __ __ __
 72
65
 73
2
 40
9.5249999999999986
 49
6.3499999999999996
 74
0
 49
-3.1749999999999998
 74
0
  0
LTYPE
  5
42
100
AcDbSymbolTableRecord
100
AcDbLinetypeTableRecord
  2
ACAD_ISO06W100
 70
0
  3
ISO long-dash triple-dot ____ ... ____ ... ____
 72
65
 73
8
 40
36.0000000000000071
 49
24.0
 74
0
 49
-2.9500000000000002
 74
0
 49
0.1
 74
0
 49
-2.9000000000000004
 74
0
 49
0.1
 74
0
 49
-2.9000000000000004
 74
0
 49
0.1
 74
0
 49
-2.9500000000000002
 74
0
  0
LTYPE
  5
43
100
AcDbSymbolTableRecord
100
AcDbLinetypeTableRecord
  2
CENTER
 70
0
  3
Center ____ _ ____ _ ____ _ ____ _ ____ _ ____
 72
65
 73
4
 40
50.8000000000000043
 49
31.75
 74
0
 49
-6.3499999999999996
 74
0
 49
6.3499999999999996
 74
0
 49
-6.3499999999999996
 74
0
  0
LTYPE
  5
44
100
AcDbSymbolTableRecord
100
AcDbLinetypeTableRecord
  2
DOTX2
 70
0
  3
Dot (2x) .  .  .  .  .  .  .  .  .  .  .  .  .  .
 72
65
 73
2
 40
12.6999999999999993
 49
0.1
 74
0
 49
-12.5999999999999996
 74
0
  0
LTYPE
  5
45
100
AcDbSymbolTableRecord
100
AcDbLinetypeTableRecord
  2
PHANTOM
 70
0
  3
Phantom ______  __  __  ______  __  __  ______ 
 72
65
 73
6
 40
63.5000000000000071
 49
31.75
 74
0
 49
-6.3499999999999996
 74
0
 49
6.3499999999999996
 74
0
 49
-6.3499999999999996
 74
0
 49
6.3499999999999996
 74
0
 49
-6.3499999999999996
 74
0
  0
LTYPE
  5
46
100
AcDbSymbolTableRecord
100
AcDbLinetypeTableRecord
  2
ACAD_ISO08W100
 70
0
  3
ISO long-dash short-dash ____ __ ____ __ ____ _
 72
65
 73
4
 40
36.0
 49
24.0
 74
0
 49
-3.0
 74
0
 49
6.0
 74
0
 49
-3.0
 74
0
  0
LTYPE
  5
47
100
AcDbSymbolTableRecord
100
AcDbLinetypeTableRecord
  2
DASHEDX2
 70
0
  3
Dashed (2x) ____  ____  ____  ____  ____  ___
 72
65
 73
2
 40
38.0999999999999943
 49
25.3999999999999986
 74
0
 49
-12.6999999999999993
 74
0
  0
LTYPE
  5
48
100
AcDbSymbolTableRecord
100
AcDbLinetypeTableRecord
  2
ACAD_ISO02W100
 70
0
  3
ISO dash __ __ __ __ __ __ __ __ __ __ __ __ __
 72
65
 73
2
 40
15.0
 49
12.0
 74
0
 49
-3.0
 74
0
  0
LTYPE
  5
49
100
AcDbSymbolTableRecord
100
AcDbLinetypeTableRecord
  2
PHANTOM2
 70
0
  3
Phantom (.5x) ___ _ _ ___ _ _ ___ _ _ ___ _ _
 72
65
 73
6
 40
31.7500000000000036
 49
15.875
 74
0
 49
-3.1749999999999998
 74
0
 49
3.1749999999999998
 74
0
 49
-3.1749999999999998
 74
0
 49
3.1749999999999998
 74
0
 49
-3.1749999999999998
 74
0
  0
LTYPE
  5
4A
100
AcDbSymbolTableRecord
100
AcDbLinetypeTableRecord
  2
DASHED2
 70
0
  3
Dashed (.5x) _ _ _ _ _ _ _ _ _ _ _ _ _ _ _ _ _ 
 72
65
 73
2
 40
9.5249999999999986
 49
6.3499999999999996
 74
0
 49
-3.1749999999999998
 74
0
  0
LTYPE
  5
4B
100
AcDbSymbolTableRecord
100
AcDbLinetypeTableRecord
  2
ACAD_ISO09W100
 70
0
  3
ISO long-dash double-short-dash ____ __ __ ____
 72
65
 73
6
 40
45.0
 49
24.0
 74
0
 49
-3.0
 74
0
 49
6.0
 74
0
 49
-3.0
 74
0
 49
6.0
 74
0
 49
-3.0
 74
0
  0
LTYPE
  5
4C
100
AcDbSymbolTableRecord
100
AcDbLinetypeTableRecord
  2
ACAD_ISO13W100
 70
0
  3
ISO double-dash double-dot __ __ . . __ __ . . _
 72
65
 73
8
 40
36.0000000000000071
 49
12.0
 74
0
 49
-3.0
 74
0
 49
12.0
 74
0
 49
-2.9500000000000002
 74
0
 49
0.1
 74
0
 49
-2.9000000000000004
 74
0
 49
0.1
 74
0
 49
-2.9500000000000002
 74
0
  0
LTYPE
  5
4D
100
AcDbSymbolTableRecord
100
AcDbLinetypeTableRecord
  2
DOT2
 70
0
  3
Dot (.5x) ........................................
 72
65
 73
2
 40
3.1749999999999998
 49
0.1
 74
0
 49
-3.0749999999999997
 74
0
  0
LTYPE
  5
4E
100
AcDbSymbolTableRecord
100
AcDbLinetypeTableRecord
  2
DASHED
 70
0
  3
Dashed __ __ __ __ __ __ __ __ __ __ __ __ __ _
 72
65
 73
2
 40
19.0499999999999972
 49
12.6999999999999993
 74
0
 49
-6.3499999999999996
 74
0
  0
LTYPE
  5
4F
100
AcDbSymbolTableRecord
100
AcDbLinetypeTableRecord
  2
ACAD_ISO14W100
 70
0
  3
ISO dash triple-dot __ . . . __ . . . __ . . . _
 72
65
 73
8
 40
24.0000000000000036
 49
12.0
 74
0
 49
-2.9500000000000002
 74
0
 49
0.1
 74
0
 49
-2.9000000000000004
 74
0
 49
0.1
 74
0
 49
-2.9000000000000004
 74
0
 49
0.1
 74
0
 49
-2.9500000000000002
 74
0
  0
LTYPE
  5
15
100
AcDbSymbolTableRecord
100
AcDbLinetypeTableRecord
  2
BYLAYER
 70
0
  3

 72
65
 73
0
 40
0.0
  0
LTYPE
  5
50
100
AcDbSymbolTableRecord
100
AcDbLinetypeTableRecord
  2
PHANTOMX2
 70
0
  3
Phantom (2x) ____________    ____    ____   _
 72
65
 73
6
 40
127.0000000000000142
 49
63.5
 74
0
 49
-12.6999999999999993
 74
0
 49
12.6999999999999993
 74
0
 49
-12.6999999999999993
 74
0
 49
12.6999999999999993
 74
0
 49
-12.6999999999999993
 74
0
  0
LTYPE
  5
14
100
AcDbSymbolTableRecord
100
AcDbLinetypeTableRecord
  2
BYBLOCK
 70
0
  3

 72
65
 73
0
 40
0.0
  0
LTYPE
  5
51
100
AcDbSymbolTableRecord
100
AcDbLinetypeTableRecord
  2
DIVIDEX2
 70
0
  3
Divide (2x) ________  .  .  ________  .  .  _
 72
65
 73
6
 40
63.5
 49
25.3999999999999986
 74
0
 49
-12.6499999999999986
 74
0
 49
0.1
 74
0
 49
-12.5999999999999979
 74
0
 49
0.1
 74
0
 49
-12.6499999999999986
 74
0
  0
LTYPE
  5
52
100
AcDbSymbolTableRecord
100
AcDbLinetypeTableRecord
  2
BORDER
 70
0
  3
Border __ __ . __ __ . __ __ . __ __ . __ __ .
 72
65
 73
6
 40
44.4499999999999957
 49
12.6999999999999993
 74
0
 49
-6.3499999999999996
 74
0
 49
12.6999999999999993
 74
0
 49
-6.2999999999999998
 74
0
 49
0.1
 74
0
 49
-6.2999999999999998
 74
0
  0
LTYPE
  5
53
100
AcDbSymbolTableRecord
100
AcDbLinetypeTableRecord
  2
DIVIDE2
 70
0
  3
Divide (.5x) __..__..__..__..__..__..__..__.._
 72
65
 73
6
 40
15.8749999999999982
 49
6.3499999999999996
 74
0
 49
-3.125
 74
0
 49
0.1
 74
0
 49
-3.0750000000000002
 74
0
 49
0.1
 74
0
 49
-3.125
 74
0
  0
LTYPE
  5
54
100
AcDbSymbolTableRecord
100
AcDbLinetypeTableRecord
  2
DOT
 70
0
  3
Dot . . . . . . . . . . . . . . . . . . . . . . . .
 72
65
 73
2
 40
6.3499999999999996
 49
0.1
 74
0
 49
-6.25
 74
0
  0
LTYPE
  5
55
100
AcDbSymbolTableRecord
100
AcDbLinetypeTableRecord
  2
DASHDOT
 70
0
  3
Dash dot __ . __ . __ . __ . __ . __ . __ . __
 72
65
 73
4
 40
25.4000000000000021
 49
12.6999999999999993
 74
0
 49
-6.2999999999999998
 74
0
 49
0.1
 74
0
 49
-6.2999999999999998
 74
0
  0
LTYPE
  5
56
100
AcDbSymbolTableRecord
100
AcDbLinetypeTableRecord
  2
ACAD_ISO03W100
 70
0
  3
ISO dash space __    __    __    __    __    __
 72
65
 73
2
 40
30.0
 49
12.0
 74
0
 49
-18.0
 74
0
  0
ENDTAB
  0
TABLE
  2
LAYER
  5
2
100
AcDbSymbolTable
 70
6
  0
LAYER
  5
57
100
AcDbSymbolTableRecord
100
AcDbLayerTableRecord
  2
open
 70
1
 62
-4
420
65535
  6
Continuous
370
5
390
F
  0
LAYER
  5
58
100
AcDbSymbolTableRecord
100
AcDbLayerTableRecord
  2
bottom
 70
0
 62
30
420
16744192
  6
Continuous
370
5
390
F
  0
LAYER
  5
10
100
AcDbSymbolTableRecord
100
AcDbLayerTableRecord
  2
0
 70
0
 62
7
420
16777215
  6
Continuous
370
25
390
F
  0
LAYER
  5
59
100
AcDbSymbolTableRecord
100
AcDbLayerTableRecord
  2
foot
 70
0
 62
5
420
255
  6
Continuous
370
5
390
F
  0
LAYER
  5
5A
100
AcDbSymbolTableRecord
100
AcDbLayerTableRecord
  2
switchs
 70
0
 62
214
420
8388736
  6
Continuous
370
5
390
F
  0
LAYER
  5
5B
100
AcDbSymbolTableRecord
100
AcDbLayerTableRecord
  2
top
 70
0
 62
1
420
16711680
  6
Continuous
370
5
390
F
  0
ENDTAB
  0
TABLE
  2
STYLE
  5
3
100
AcDbSymbolTable
 70
1
  0
STYLE
  5
5C
100
AcDbSymbolTableRecord
100
AcDbTextStyleTableRecord
  2
Standard
 70
0
 40
0.0
 41
1.0
 50
0.0
 71
0
 42
2.5
  3

  4

1001
ACAD
1000
txt
1071
0
  0
ENDTAB
  0
TABLE
  2
VIEW
  5
6
100
AcDbSymbolTable
 70
0
  0
ENDTAB
  0
TABLE
  2
UCS
  5
7
100
AcDbSymbolTable
 70
0
  0
ENDTAB
  0
TABLE
  2
APPID
  5
9
100
AcDbSymbolTable
 70
1
  0
APPID
  5
12
100
AcDbSymbolTableRecord
100
AcDbRegAppTableRecord
  2
ACAD
 70
0
  0
APPID
  5
5D
100
AcDbSymbolTableRecord
100
AcDbRegAppTableRecord
  2
QCAD
 70
0
  0
ENDTAB
  0
TABLE
  2
DIMSTYLE
  5
A
100
AcDbSymbolTable
 70
1
100
AcDbDimStyleTable
 71
0
  0
DIMSTYLE
105
27
100
AcDbSymbolTableRecord
100
AcDbDimStyleTableRecord
  2
Standard
 41
2.5
 42
0.625
 43
3.75
 44
1.25
 70
0
 73
0
 74
0
 77
1
 78
8
140
2.5
141
2.5
143
0.03937007874016
147
0.625
171
3
172
1
271
2
272
2
274
3
278
44
283
0
284
8
340
5C
  0
ENDTAB
  0
TABLE
  2
BLOCK_RECORD
  5
1
100
AcDbSymbolTable
 70
1
  0
BLOCK_RECORD
  5
1F
100
AcDbSymbolTableRecord
100
AcDbBlockTableRecord
  2
*Model_Space
340
22
  0
BLOCK_RECORD
  5
1B
100
AcDbSymbolTableRecord
100
AcDbBlockTableRecord
  2
*Paper_Space
340
1E
  0
BLOCK_RECORD
  5
23
100
AcDbSymbolTableRecord
100
AcDbBlockTableRecord
  2
*Paper_Space0
340
26
  0
ENDTAB
  0
ENDSEC
  0
SECTION
  2
BLOCKS
  0
BLOCK
  5
20
100
AcDbEntity
  8
0
100
AcDbBlockBegin
  2
*Model_Space
 70
0
 10
0.0
 20
0.0
 30
0.0
  3
*Model_Space
  1

  0
ENDBLK
  5
21
100
AcDbEntity
  8
0
100
AcDbBlockEnd
  0
BLOCK
  5
1C
100
AcDbEntity
 67
1
  8
0
100
AcDbBlockBegin
  2
*Paper_Space
 70
0
 10
0.0
 20
0.0
 30
0.0
  3
*Paper_Space
  1

  0
ENDBLK
  5
1D
100
AcDbEntity
 67
1
  8
0
100
AcDbBlockEnd
  0
BLOCK
  5
24
100
AcDbEntity
  8
0
100
AcDbBlockBegin
  2
*Paper_Space0
 70
0
 10
0.0
 20
0.0
 30
0.0
  3
*Paper_Space0
  1

  0
ENDBLK
  5
25
100
AcDbEntity
  8
0
100
AcDbBlockEnd
  0
ENDSEC
  0
SECTION
  2
ENTITIES
  0
LINE
  5
5E
100
AcDbEntity
  8
bottom
 62
256
370
-1
 48
1.0
  6
BYLAYER
100
AcDbLine
 10
296.7516357000000085
 20
102.2496760618786027
 30
0.0
 11
296.7516357000000085
 21
-1.0010839381214112
 31
0.0
  0
LINE
  5
5F
100
AcDbEntity
  8
bottom
 62
256
370
-1
 48
1.0
  6
BYLAYER
100
AcDbLine
 10
294.7513000000000147
 20
-2.9999934000000223
 30
0.0
 11
-1.0004600000000039
 21
-2.9999934000000223
 31
0.0
  0
LINE
  5
60
100
AcDbEntity
  8
open
 62
256
370
-1
 48
1.0
  6
BYLAYER
100
AcDbLine
 10
2.9999699999999905
 20
98.2502999999999957
 30
0.0
 11
2.9999699999999905
 21
2.9999700000000047
 31
0.0
  0
LINE
  5
61
100
AcDbEntity
  8
bottom
 62
256
370
-1
 48
1.0
  6
BYLAYER
100
AcDbLine
 10
-2.9999934000000223
 20
102.2502999999999815
 30
0.0
 11
-2.994481200000024
 21
102.4072999999999922
 31
0.0
  0
LINE
  5
62
100
AcDbEntity
  8
open
 62
256
370
-1
 48
1.0
  6
BYLAYER
100
AcDbLine
 10
2.9999699999999905
 20
2.9999700000000047
 30
0.0
 11
290.7502999999999815
 21
2.9999700000000047
 31
0.0
  0
LINE
  5
63
100
AcDbEntity
  8
bottom
 62
256
370
-1
 48
1.0
  6
BYLAYER
100
AcDbLine
 10
-2.994481200000024
 20
102.4072999999999922
 30
0.0
 11
-2.9765670000000171
 21
102.5632999999999981
 31
0.0
  0
LINE
  5
64
100
AcDbEntity
  8
open
 62
256
370
-1
 48
1.0
  6
BYLAYER
100
AcDbLine
 10
290.7502999999999815
 20
2.9999700000000047
 30
0.0
 11
290.7502999999999815
 21
98.2502999999999957
 31
0.0
  0
LINE
  5
65
100
AcDbEntity
  8
bottom
 62
256
370
-1
 48
1.0
  6
BYLAYER
100
AcDbLine
 10
-2.9765670000000171
 20
102.5632999999999981
 30
0.0
 11
-2.9448720000000037
 21
102.7172999999999945
 31
0.0
  0
LINE
  5
66
100
AcDbEntity
  8
bottom
 62
256
370
-1
 48
1.0
  6
BYLAYER
100
AcDbLine
 10
-2.9448720000000037
 20
102.7172999999999945
 30
0.0
 11
-2.9035310000000152
 21
102.8692999999999813
 31
0.0
  0
LINE
  5
67
100
AcDbEntity
  8
bottom
 62
256
370
-1
 48
1.0
  6
BYLAYER
100
AcDbLine
 10
-2.9035310000000152
 20
102.8692999999999813
 30
0.0
 11
-2.8484090000000037
 21
103.0152999999999963
 31
0.0
  0
LINE
  5
68
100
AcDbEntity
  8
bottom
 62
256
370
-1
 48
1.0
  6
BYLAYER
100
AcDbLine
 10
-2.8484090000000037
 20
103.0152999999999963
 30
0.0
 11
-2.7822630000000004
 21
103.158299999999997
 31
0.0
  0
LINE
  5
69
100
AcDbEntity
  8
bottom
 62
256
370
-1
 48
1.0
  6
BYLAYER
100
AcDbLine
 10
-2.7822630000000004
 20
103.158299999999997
 30
0.0
 11
-2.7064700000000244
 21
103.2952999999999975
 31
0.0
  0
LINE
  5
6A
100
AcDbEntity
  8
bottom
 62
256
370
-1
 48
1.0
  6
BYLAYER
100
AcDbLine
 10
-2.7064700000000244
 20
103.2952999999999975
 30
0.0
 11
-2.6182760000000087
 21
103.4252999999999929
 31
0.0
  0
LINE
  5
6B
100
AcDbEntity
  8
bottom
 62
256
370
-1
 48
1.0
  6
BYLAYER
100
AcDbLine
 10
-3.001035700000017
 20
-1.0010839381214112
 30
0.0
 11
-2.9996577000000286
 21
102.2496760618786027
 31
0.0
  0
LINE
  5
6C
100
AcDbEntity
  8
open
 62
256
370
-1
 48
1.0
  6
BYLAYER
100
AcDbLine
 10
-3.001035700000017
 20
-1.001083938121397
 30
0.0
 11
-2.9996577000000286
 21
102.2496760618786169
 31
0.0
  0
LINE
  5
6D
100
AcDbEntity
  8
bottom
 62
256
370
-1
 48
1.0
  6
BYLAYER
100
AcDbLine
 10
-2.6182760000000087
 20
103.4252999999999929
 30
0.0
 11
-2.5204360000000179
 21
103.5482999999999834
 31
0.0
  0
LINE
  5
6E
100
AcDbEntity
  8
bottom
 62
256
370
-1
 48
1.0
  6
BYLAYER
100
AcDbLine
 10
-2.9996577000000286
 20
102.2496760618786027
 30
0.0
 11
-2.9941455000000303
 21
102.4066760618786134
 31
0.0
  0
LINE
  5
6F
100
AcDbEntity
  8
bottom
 62
256
370
-1
 48
1.0
  6
BYLAYER
100
AcDbLine
 10
-2.5204360000000179
 20
103.5482999999999834
 30
0.0
 11
-2.4143280000000118
 21
103.6642999999999972
 31
0.0
  0
LINE
  5
70
100
AcDbEntity
  8
bottom
 62
256
370
-1
 48
1.0
  6
BYLAYER
100
AcDbLine
 10
-2.9941455000000303
 20
102.4066760618786134
 30
0.0
 11
-2.9762313000000233
 21
102.5626760618785909
 31
0.0
  0
LINE
  5
71
100
AcDbEntity
  8
bottom
 62
256
370
-1
 48
1.0
  6
BYLAYER
100
AcDbLine
 10
-2.4143280000000118
 20
103.6642999999999972
 30
0.0
 11
-2.2985710000000097
 21
103.7702999999999918
 31
0.0
  0
LINE
  5
72
100
AcDbEntity
  8
bottom
 62
256
370
-1
 48
1.0
  6
BYLAYER
100
AcDbLine
 10
-2.9762313000000233
 20
102.5626760618785909
 30
0.0
 11
-2.94453630000001
 21
102.7166760618786157
 31
0.0
  0
LINE
  5
73
100
AcDbEntity
  8
bottom
 62
256
370
-1
 48
1.0
  6
BYLAYER
100
AcDbLine
 10
-2.2985710000000097
 20
103.7702999999999918
 30
0.0
 11
-2.1759270000000015
 21
103.868300000000005
 31
0.0
  0
LINE
  5
74
100
AcDbEntity
  8
bottom
 62
256
370
-1
 48
1.0
  6
BYLAYER
100
AcDbLine
 10
-2.94453630000001
 20
102.7166760618786157
 30
0.0
 11
-2.9031953000000215
 21
102.8686760618786025
 31
0.0
  0
LINE
  5
75
100
AcDbEntity
  8
bottom
 62
256
370
-1
 48
1.0
  6
BYLAYER
100
AcDbLine
 10
-2.1759270000000015
 20
103.868300000000005
 30
0.0
 11
-2.0450100000000191
 21
103.9562999999999988
 31
0.0
  0
LINE
  5
76
100
AcDbEntity
  8
top
 62
256
370
-1
 48
1.0
  6
BYLAYER
100
AcDbLine
 10
296.7513000000000147
 20
102.25030000000001
 30
0.0
 11
296.7513000000000147
 21
-1.0004599999999897
 31
0.0
  0
LINE
  5
77
100
AcDbEntity
  8
switchs
 62
256
370
-1
 48
1.0
  6
BYLAYER
100
AcDbLine
 10
296.7512999999999579
 20
102.2503000000000384
 30
0.0
 11
296.7512999999999579
 21
-1.0004599999999471
 31
0.0
  0
LINE
  5
78
100
AcDbEntity
  8
bottom
 62
256
370
-1
 48
1.0
  6
BYLAYER
100
AcDbLine
 10
-2.9031953000000215
 20
102.8686760618786025
 30
0.0
 11
-2.84807330000001
 21
103.0146760618785891
 31
0.0
  0
LINE
  5
79
100
AcDbEntity
  8
bottom
 62
256
370
-1
 48
1.0
  6
BYLAYER
100
AcDbLine
 10
-2.0450100000000191
 20
103.9562999999999988
 30
0.0
 11
-1.9085900000000038
 21
104.0322999999999922
 31
0.0
  0
LINE
  5
7A
100
AcDbEntity
  8
bottom
 62
256
370
-1
 48
1.0
  6
BYLAYER
100
AcDbLine
 10
-2.84807330000001
 20
103.0146760618785891
 30
0.0
 11
-2.7819273000000067
 21
103.1576760618785897
 31
0.0
  0
LINE
  5
7B
100
AcDbEntity
  8
bottom
 62
256
370
-1
 48
1.0
  6
BYLAYER
100
AcDbLine
 10
-1.9085900000000038
 20
104.0322999999999922
 30
0.0
 11
-1.7652700000000152
 21
104.0982999999999947
 31
0.0
  0
LINE
  5
7C
100
AcDbEntity
  8
bottom
 62
256
370
-1
 48
1.0
  6
BYLAYER
100
AcDbLine
 10
-2.7819273000000067
 20
103.1576760618785897
 30
0.0
 11
-2.7061343000000306
 21
103.2946760618785902
 31
0.0
  0
LINE
  5
7D
100
AcDbEntity
  8
bottom
 62
256
370
-1
 48
1.0
  6
BYLAYER
100
AcDbLine
 10
-1.7652700000000152
 20
104.0982999999999947
 30
0.0
 11
-1.6192000000000064
 21
104.1533000000000015
 31
0.0
  0
LINE
  5
7E
100
AcDbEntity
  8
open
 62
256
370
-1
 48
1.0
  6
BYLAYER
100
AcDbLine
 10
296.7513000000000147
 20
102.2502999999999957
 30
0.0
 11
296.7513000000000147
 21
-1.0004599999999968
 31
0.0
  0
LINE
  5
7F
100
AcDbEntity
  8
bottom
 62
256
370
-1
 48
1.0
  6
BYLAYER
100
AcDbLine
 10
-2.7061343000000306
 20
103.2946760618785902
 30
0.0
 11
-2.617940300000015
 21
103.4246760618786141
 31
0.0
  0
LINE
  5
80
100
AcDbEntity
  8
open
 62
256
370
-1
 48
1.0
  6
BYLAYER
100
AcDbLine
 10
296.7513000000000147
 20
-1.0004599999999968
 30
0.0
 11
296.7443000000000097
 21
-1.1575599999999966
 31
0.0
  0
LINE
  5
81
100
AcDbEntity
  8
bottom
 62
256
370
-1
 48
1.0
  6
BYLAYER
100
AcDbLine
 10
-1.6192000000000064
 20
104.1533000000000015
 30
0.0
 11
-1.4676100000000076
 21
104.1953000000000031
 31
0.0
  0
LINE
  5
82
100
AcDbEntity
  8
open
 62
256
370
-1
 48
1.0
  6
BYLAYER
100
AcDbLine
 10
296.7443000000000097
 20
-1.1575599999999966
 30
0.0
 11
296.7262999999999806
 21
-1.3132699999999957
 31
0.0
  0
LINE
  5
83
100
AcDbEntity
  8
bottom
 62
256
370
-1
 48
1.0
  6
BYLAYER
100
AcDbLine
 10
-2.617940300000015
 20
103.4246760618786141
 30
0.0
 11
-2.5201003000000242
 21
103.5476760618786045
 31
0.0
  0
LINE
  5
84
100
AcDbEntity
  8
open
 62
256
370
-1
 48
1.0
  6
BYLAYER
100
AcDbLine
 10
296.7262999999999806
 20
-1.3132699999999957
 30
0.0
 11
296.6942999999999984
 21
-1.4676100000000005
 31
0.0
  0
LINE
  5
85
100
AcDbEntity
  8
bottom
 62
256
370
-1
 48
1.0
  6
BYLAYER
100
AcDbLine
 10
-1.4676100000000076
 20
104.1953000000000031
 30
0.0
 11
-1.313270000000017
 21
104.2262999999999806
 31
0.0
  0
LINE
  5
86
100
AcDbEntity
  8
open
 62
256
370
-1
 48
1.0
  6
BYLAYER
100
AcDbLine
 10
296.6942999999999984
 20
-1.4676100000000005
 30
0.0
 11
296.6533000000000015
 21
-1.6191999999999993
 31
0.0
  0
LINE
  5
87
100
AcDbEntity
  8
bottom
 62
256
370
-1
 48
1.0
  6
BYLAYER
100
AcDbLine
 10
-2.5201003000000242
 20
103.5476760618786045
 30
0.0
 11
-2.4139923000000181
 21
103.66367606187859
 31
0.0
  0
LINE
  5
88
100
AcDbEntity
  8
open
 62
256
370
-1
 48
1.0
  6
BYLAYER
100
AcDbLine
 10
296.6533000000000015
 20
-1.6191999999999993
 30
0.0
 11
296.5982999999999947
 21
-1.7666499999999985
 31
0.0
  0
LINE
  5
89
100
AcDbEntity
  8
bottom
 62
256
370
-1
 48
1.0
  6
BYLAYER
100
AcDbLine
 10
-1.313270000000017
 20
104.2262999999999806
 30
0.0
 11
-1.1575600000000179
 21
104.2442999999999813
 31
0.0
  0
LINE
  5
8A
100
AcDbEntity
  8
open
 62
256
370
-1
 48
1.0
  6
BYLAYER
100
AcDbLine
 10
296.5982999999999947
 20
-1.7666499999999985
 30
0.0
 11
296.533299999999997
 21
-1.9085899999999967
 31
0.0
  0
LINE
  5
8B
100
AcDbEntity
  8
bottom
 62
256
370
-1
 48
1.0
  6
BYLAYER
100
AcDbLine
 10
-2.4139923000000181
 20
103.66367606187859
 30
0.0
 11
-2.298235300000016
 21
103.7696760618786129
 31
0.0
  0
LINE
  5
8C
100
AcDbEntity
  8
open
 62
256
370
-1
 48
1.0
  6
BYLAYER
100
AcDbLine
 10
296.533299999999997
 20
-1.9085899999999967
 30
0.0
 11
296.4562999999999988
 21
-2.0450099999999978
 31
0.0
  0
LINE
  5
8D
100
AcDbEntity
  8
bottom
 62
256
370
-1
 48
1.0
  6
BYLAYER
100
AcDbLine
 10
-1.1575600000000179
 20
104.2442999999999813
 30
0.0
 11
-1.0004600000000039
 21
104.2512999999999863
 31
0.0
  0
LINE
  5
8E
100
AcDbEntity
  8
open
 62
256
370
-1
 48
1.0
  6
BYLAYER
100
AcDbLine
 10
296.4562999999999988
 20
-2.0450099999999978
 30
0.0
 11
296.3693000000000097
 21
-2.1759270000000015
 31
0.0
  0
LINE
  5
8F
100
AcDbEntity
  8
bottom
 62
256
370
-1
 48
1.0
  6
BYLAYER
100
AcDbLine
 10
-2.298235300000016
 20
103.7696760618786129
 30
0.0
 11
-2.1755913000000078
 21
103.8676760618785977
 31
0.0
  0
LINE
  5
90
100
AcDbEntity
  8
open
 62
256
370
-1
 48
1.0
  6
BYLAYER
100
AcDbLine
 10
296.3693000000000097
 20
-2.1759270000000015
 30
0.0
 11
296.2712999999999965
 21
-2.2985709999999955
 31
0.0
  0
LINE
  5
91
100
AcDbEntity
  8
bottom
 62
256
370
-1
 48
1.0
  6
BYLAYER
100
AcDbLine
 10
-2.1755913000000078
 20
103.8676760618785977
 30
0.0
 11
-2.0446743000000254
 21
103.9556760618785916
 31
0.0
  0
LINE
  5
92
100
AcDbEntity
  8
open
 62
256
370
-1
 48
1.0
  6
BYLAYER
100
AcDbLine
 10
296.2712999999999965
 20
-2.2985709999999955
 30
0.0
 11
296.165300000000002
 21
-2.4157030000000006
 31
0.0
  0
LINE
  5
93
100
AcDbEntity
  8
bottom
 62
256
370
-1
 48
1.0
  6
BYLAYER
100
AcDbLine
 10
-2.0446743000000254
 20
103.9556760618785916
 30
0.0
 11
-1.9082543000000101
 21
104.0316760618786134
 31
0.0
  0
LINE
  5
94
100
AcDbEntity
  8
open
 62
256
370
-1
 48
1.0
  6
BYLAYER
100
AcDbLine
 10
296.165300000000002
 20
-2.4157030000000006
 30
0.0
 11
296.0492999999999597
 21
-2.5204359999999966
 31
0.0
  0
LINE
  5
95
100
AcDbEntity
  8
bottom
 62
256
370
-1
 48
1.0
  6
BYLAYER
100
AcDbLine
 10
-1.9082543000000101
 20
104.0316760618786134
 30
0.0
 11
-1.7649343000000215
 21
104.0976760618785875
 31
0.0
  0
LINE
  5
96
100
AcDbEntity
  8
open
 62
256
370
-1
 48
1.0
  6
BYLAYER
100
AcDbLine
 10
296.0492999999999597
 20
-2.5204359999999966
 30
0.0
 11
295.9252999999999929
 21
-2.6196550000000016
 31
0.0
  0
LINE
  5
97
100
AcDbEntity
  8
bottom
 62
256
370
-1
 48
1.0
  6
BYLAYER
100
AcDbLine
 10
-1.7649343000000215
 20
104.0976760618785875
 30
0.0
 11
-1.6188643000000127
 21
104.1526760618785943
 31
0.0
  0
LINE
  5
98
100
AcDbEntity
  8
open
 62
256
370
-1
 48
1.0
  6
BYLAYER
100
AcDbLine
 10
295.9252999999999929
 20
-2.6196550000000016
 30
0.0
 11
295.7942999999999643
 21
-2.7064699999999959
 31
0.0
  0
LINE
  5
99
100
AcDbEntity
  8
bottom
 62
256
370
-1
 48
1.0
  6
BYLAYER
100
AcDbLine
 10
-1.6188643000000127
 20
104.1526760618785943
 30
0.0
 11
-1.4672743000000139
 21
104.1946760618785959
 31
0.0
  0
LINE
  5
9A
100
AcDbEntity
  8
open
 62
256
370
-1
 48
1.0
  6
BYLAYER
100
AcDbLine
 10
295.7942999999999643
 20
-2.7064699999999959
 30
0.0
 11
295.658299999999997
 21
-2.7836409999999958
 31
0.0
  0
LINE
  5
9B
100
AcDbEntity
  8
bottom
 62
256
370
-1
 48
1.0
  6
BYLAYER
100
AcDbLine
 10
-1.4672743000000139
 20
104.1946760618785959
 30
0.0
 11
-1.3129343000000233
 21
104.2256760618786018
 31
0.0
  0
LINE
  5
9C
100
AcDbEntity
  8
open
 62
256
370
-1
 48
1.0
  6
BYLAYER
100
AcDbLine
 10
295.658299999999997
 20
-2.7836409999999958
 30
0.0
 11
295.5163000000000011
 21
-2.8484089999999966
 31
0.0
  0
LINE
  5
9D
100
AcDbEntity
  8
top
 62
256
370
-1
 48
1.0
  6
BYLAYER
100
AcDbLine
 10
294.7513000000000147
 20
-2.9999933999999939
 30
0.0
 11
-1.0004600000000323
 21
-2.9999933999999939
 31
0.0
  0
LINE
  5
9E
100
AcDbEntity
  8
switchs
 62
256
370
-1
 48
1.0
  6
BYLAYER
100
AcDbLine
 10
294.7512999999999579
 20
-2.9999933999999655
 30
0.0
 11
-1.0004600000000217
 21
-2.9999933999999655
 31
0.0
  0
LINE
  5
9F
100
AcDbEntity
  8
bottom
 62
256
370
-1
 48
1.0
  6
BYLAYER
100
AcDbLine
 10
-1.3129343000000233
 20
104.2256760618786018
 30
0.0
 11
-1.1572243000000242
 21
104.2436760618786025
 31
0.0
  0
LINE
  5
A0
100
AcDbEntity
  8
open
 62
256
370
-1
 48
1.0
  6
BYLAYER
100
AcDbLine
 10
295.5163000000000011
 20
-2.8484089999999966
 30
0.0
 11
295.3682999999999765
 21
-2.903531000000001
 31
0.0
  0
LINE
  5
A1
100
AcDbEntity
  8
bottom
 62
256
370
-1
 48
1.0
  6
BYLAYER
100
AcDbLine
 10
-1.1572243000000242
 20
104.2436760618786025
 30
0.0
 11
-1.0001243000000102
 21
104.2506760618786075
 31
0.0
  0
LINE
  5
A2
100
AcDbEntity
  8
open
 62
256
370
-1
 48
1.0
  6
BYLAYER
100
AcDbLine
 10
295.3682999999999765
 20
-2.903531000000001
 30
0.0
 11
295.2172999999999661
 21
-2.9448719999999966
 31
0.0
  0
LINE
  5
A3
100
AcDbEntity
  8
open
 62
256
370
-1
 48
1.0
  6
BYLAYER
100
AcDbLine
 10
295.2172999999999661
 20
-2.9448719999999966
 30
0.0
 11
295.0632999999999697
 21
-2.9765669999999957
 31
0.0
  0
LINE
  5
A4
100
AcDbEntity
  8
open
 62
256
370
-1
 48
1.0
  6
BYLAYER
100
AcDbLine
 10
295.0632999999999697
 20
-2.9765669999999957
 30
0.0
 11
294.9072999999999638
 21
-2.9944811999999956
 31
0.0
  0
LINE
  5
A5
100
AcDbEntity
  8
open
 62
256
370
-1
 48
1.0
  6
BYLAYER
100
AcDbLine
 10
294.9072999999999638
 20
-2.9944811999999956
 30
0.0
 11
294.7513000000000147
 21
-2.999993400000001
 31
0.0
  0
ARC
  5
A6
100
AcDbEntity
  8
bottom
 62
256
370
-1
 48
1.0
  6
BYLAYER
100
AcDbCircle
 10
-1.0010359972731635
 20
-0.9999934829432107
 30
0.0
 40
2.0
100
AcDbArc
 50
180.0312392412703559
 51
270.0165011066094394
  0
LINE
  5
A7
100
AcDbEntity
  8
open
 62
256
370
-1
 48
1.0
  6
BYLAYER
100
AcDbLine
 10
294.7513000000000147
 20
-2.999993400000001
 30
0.0
 11
-1.0004600000000039
 21
-2.999993400000001
 31
0.0
  0
ARC
  5
A8
100
AcDbEntity
  8
bottom
 62
256
370
-1
 48
1.0
  6
BYLAYER
100
AcDbCircle
 10
294.7516359973030262
 20
-0.9999934282235472
 30
0.0
 40
2.0
100
AcDbArc
 50
269.990374386259532
 51
359.9687591911241498
  0
ARC
  5
A9
100
AcDbEntity
  8
bottom
 62
256
370
-1
 48
1.0
  6
BYLAYER
100
AcDbCircle
 10
294.7516357021754061
 20
102.2497693437298381
 30
0.0
 40
2.0
100
AcDbArc
 50
359.9973276718479838
 51
85.526385170863918
  0
CIRCLE
  5
AA
100
AcDbEntity
  8
bottom
 62
256
370
-1
 48
1.0
  6
BYLAYER
100
AcDbCircle
 10
293.7513000000000716
 20
0.0000000000001421
 30
0.0
 40
1.2
  0
CIRCLE
  5
AB
100
AcDbEntity
  8
bottom
 62
256
370
-1
 48
1.0
  6
BYLAYER
100
AcDbCircle
 10
146.8752999999999815
 20
0.0
 30
0.0
 40
1.2
  0
CIRCLE
  5
AC
100
AcDbEntity
  8
bottom
 62
256
370
-1
 48
1.0
  6
BYLAYER
100
AcDbCircle
 10
0.0
 20
0.0
 30
0.0
 40
1.2
  0
CIRCLE
  5
AD
100
AcDbEntity
  8
bottom
 62
256
370
-1
 48
1.0
  6
BYLAYER
100
AcDbCircle
 10
32.9062999999999874
 20
52.029405625617656
 30
0.0
 40
3.0
  0
LINE
  5
AE
100
AcDbEntity
  8
top
 62
256
370
-1
 48
1.0
  6
BYLAYER
100
AcDbLine
 10
-3.0013714000000391
 20
-1.0004599999999897
 30
0.0
 11
-2.9999934000000508
 21
102.25030000000001
 31
0.0
  0
LINE
  5
AF
100
AcDbEntity
  8
switchs
 62
256
370
-1
 48
1.0
  6
BYLAYER
100
AcDbLine
 10
-3.0013714000000284
 20
-1.0004599999999471
 30
0.0
 11
-2.9999934000000401
 21
102.2503000000000384
 31
0.0
  0
ARC
  5
B0
100
AcDbEntity
  8
bottom
 62
256
370
-1
 48
1.0
  6
BYLAYER
100
AcDbCircle
 10
12.9063000199640783
 20
102.2503161415588693
 30
0.0
 40
2.0
100
AcDbArc
 50
359.9919044322002719
 51
90.000000000000199
  0
ARC
  5
B1
100
AcDbEntity
  8
open
 62
256
370
-1
 48
1.0
  6
BYLAYER
100
AcDbCircle
 10
12.9063000199640783
 20
102.2503161415588835
 30
0.0
 40
2.0
100
AcDbArc
 50
359.9919044322002719
 51
90.000000000000199
  0
ARC
  5
B2
100
AcDbEntity
  8
bottom
 62
256
370
-1
 48
1.0
  6
BYLAYER
100
AcDbCircle
 10
30.9062999993135463
 20
102.2505929043685171
 30
0.0
 40
2.0
100
AcDbArc
 50
90.0
 51
179.9984988488597537
  0
ARC
  5
B3
100
AcDbEntity
  8
open
 62
256
370
-1
 48
1.0
  6
BYLAYER
100
AcDbCircle
 10
30.9062999993135463
 20
102.2505929043685313
 30
0.0
 40
2.0
100
AcDbArc
 50
90.0
 51
179.9984988488597537
  0
ARC
  5
B4
100
AcDbEntity
  8
bottom
 62
256
370
-1
 48
1.0
  6
BYLAYER
100
AcDbCircle
 10
26.9062999999999874
 20
89.9062999999999874
 30
0.0
 40
2.0
100
AcDbArc
 50
270.0
 51
0.0
  0
ARC
  5
B5
100
AcDbEntity
  8
bottom
 62
256
370
-1
 48
1.0
  6
BYLAYER
100
AcDbCircle
 10
16.9062999999999874
 20
89.9062999999999874
 30
0.0
 40
2.0
100
AcDbArc
 50
180.0
 51
270.0
  0
LINE
  5
B6
100
AcDbEntity
  8
bottom
 62
256
370
-1
 48
1.0
  6
BYLAYER
100
AcDbLine
 10
-1.0001243000000102
 20
104.2506760618786075
 30
0.0
 11
12.9063000199640783
 21
104.2503161415588693
 31
0.0
  0
LINE
  5
B7
100
AcDbEntity
  8
open
 62
256
370
-1
 48
1.0
  6
BYLAYER
100
AcDbLine
 10
-1.0001243000000102
 20
104.2506760618786217
 30
0.0
 11
12.9063000199640783
 21
104.2503161415588835
 31
0.0
  0
LINE
  5
B8
100
AcDbEntity
  8
bottom
 62
256
370
-1
 48
1.0
  6
BYLAYER
100
AcDbLine
 10
14.9062999999999874
 20
102.2500335529339566
 30
0.0
 11
14.9062999999999874
 21
89.9062999999999874
 31
0.0
  0
LINE
  5
B9
100
AcDbEntity
  8
bottom
 62
256
370
-1
 48
1.0
  6
BYLAYER
100
AcDbLine
 10
16.9062999999999874
 20
87.9062999999999874
 30
0.0
 11
26.9062999999999874
 21
87.9062999999999874
 31
0.0
  0
LINE
  5
BA
100
AcDbEntity
  8
bottom
 62
256
370
-1
 48
1.0
  6
BYLAYER
100
AcDbLine
 10
28.9062999999999874
 20
89.9062999999999874
 30
0.0
 11
28.9062999999999874
 21
102.2506453044284456
 31
0.0
  0
LINE
  5
BB
100
AcDbEntity
  8
bottom
 62
256
370
-1
 48
1.0
  6
BYLAYER
100
AcDbLine
 10
30.9062999993135463
 20
104.2505929043685171
 30
0.0
 11
294.9076356999999575
 21
104.243676061878574
 31
0.0
  0
LINE
  5
BC
100
AcDbEntity
  8
top
 62
256
370
-1
 48
1.0
  6
BYLAYER
100
AcDbLine
 10
-1.0004600000000323
 20
104.2513000000000147
 30
0.0
 11
294.7513000000000147
 21
104.25030000000001
 31
0.0
  0
LINE
  5
BD
100
AcDbEntity
  8
switchs
 62
256
370
-1
 48
1.0
  6
BYLAYER
100
AcDbLine
 10
-1.0004600000000217
 20
104.2513000000000432
 30
0.0
 11
294.7512999999999579
 21
104.2503000000000384
 31
0.0
  0
LINE
  5
BE
100
AcDbEntity
  8
top
 62
256
370
-1
 48
1.0
  6
BYLAYER
100
AcDbLine
 10
2.9985999999999535
 20
98.2513000000000147
 30
0.0
 11
2.9985999999999535
 21
22.0486000000000075
 31
0.0
  0
LINE
  5
BF
100
AcDbEntity
  8
switchs
 62
256
370
-1
 48
1.0
  6
BYLAYER
100
AcDbLine
 10
138.8767599999999618
 20
19.526800000000037
 30
0.0
 11
138.8767599999999618
 21
18.5264000000000237
 31
0.0
  0
LINE
  5
C0
100
AcDbEntity
  8
top
 62
256
370
-1
 48
1.0
  6
BYLAYER
100
AcDbLine
 10
2.9985999999999535
 20
22.0486000000000075
 30
0.0
 11
31.5735999999999564
 21
22.0486000000000075
 31
0.0
  0
LINE
  5
C1
100
AcDbEntity
  8
switchs
 62
256
370
-1
 48
1.0
  6
BYLAYER
100
AcDbLine
 10
138.8767599999999618
 20
18.5264000000000237
 30
0.0
 11
138.0757599999999456
 21
18.5264000000000237
 31
0.0
  0
LINE
  5
C2
100
AcDbEntity
  8
top
 62
256
370
-1
 48
1.0
  6
BYLAYER
100
AcDbLine
 10
31.5735999999999564
 20
22.0486000000000075
 30
0.0
 11
31.5735999999999564
 21
2.9999700000000189
 31
0.0
  0
LINE
  5
C3
100
AcDbEntity
  8
switchs
 62
256
370
-1
 48
1.0
  6
BYLAYER
100
AcDbLine
 10
138.0757599999999456
 20
18.5264000000000237
 30
0.0
 11
138.0757599999999456
 21
15.4272000000000276
 31
0.0
  0
LINE
  5
C4
100
AcDbEntity
  8
top
 62
256
370
-1
 48
1.0
  6
BYLAYER
100
AcDbLine
 10
31.5735999999999564
 20
2.9999700000000189
 30
0.0
 11
241.1262999999999579
 21
2.9999700000000189
 31
0.0
  0
LINE
  5
C5
100
AcDbEntity
  8
switchs
 62
256
370
-1
 48
1.0
  6
BYLAYER
100
AcDbLine
 10
138.0757599999999456
 20
15.4272000000000276
 30
0.0
 11
138.8767599999999618
 21
15.4272000000000276
 31
0.0
  0
LINE
  5
C6
100
AcDbEntity
  8
top
 62
256
370
-1
 48
1.0
  6
BYLAYER
100
AcDbLine
 10
241.1262999999999579
 20
2.9999700000000189
 30
0.0
 11
241.1262999999999579
 21
22.0486000000000075
 31
0.0
  0
LINE
  5
C7
100
AcDbEntity
  8
switchs
 62
256
370
-1
 48
1.0
  6
BYLAYER
100
AcDbLine
 10
138.8767599999999618
 20
15.4272000000000276
 30
0.0
 11
138.8767599999999618
 21
14.8263000000000318
 31
0.0
  0
LINE
  5
C8
100
AcDbEntity
  8
top
 62
256
370
-1
 48
1.0
  6
BYLAYER
100
AcDbLine
 10
241.1262999999999579
 20
22.0486000000000075
 30
0.0
 11
288.7513000000000147
 21
22.0486000000000075
 31
0.0
  0
LINE
  5
C9
100
AcDbEntity
  8
top
 62
256
370
-1
 48
1.0
  6
BYLAYER
100
AcDbLine
 10
288.7513000000000147
 20
22.0486000000000075
 30
0.0
 11
288.7513000000000147
 21
98.2513000000000147
 31
0.0
  0
LINE
  5
CA
100
AcDbEntity
  8
switchs
 62
256
370
-1
 48
1.0
  6
BYLAYER
100
AcDbLine
 10
92.1756599999999793
 20
14.8264000000000351
 30
0.0
 11
92.1756599999999793
 21
18.0565000000000282
 31
0.0
  0
LINE
  5
CB
100
AcDbEntity
  8
top
 62
256
370
-1
 48
1.0
  6
BYLAYER
100
AcDbLine
 10
288.7513000000000147
 20
98.2513000000000147
 30
0.0
 11
2.9985999999999535
 21
98.2513000000000147
 31
0.0
  0
LINE
  5
CC
100
AcDbEntity
  8
switchs
 62
256
370
-1
 48
1.0
  6
BYLAYER
100
AcDbLine
 10
92.1756599999999793
 20
18.0565000000000282
 30
0.0
 11
90.4999599999999731
 21
18.0565000000000282
 31
0.0
  0
LINE
  5
CD
100
AcDbEntity
  8
switchs
 62
256
370
-1
 48
1.0
  6
BYLAYER
100
AcDbLine
 10
90.4999599999999731
 20
18.0565000000000282
 30
0.0
 11
90.4999599999999731
 21
18.9771000000000356
 31
0.0
  0
LINE
  5
CE
100
AcDbEntity
  8
switchs
 62
256
370
-1
 48
1.0
  6
BYLAYER
100
AcDbLine
 10
90.4999599999999731
 20
18.9771000000000356
 30
0.0
 11
87.2007599999999741
 21
18.9771000000000356
 31
0.0
  0
LINE
  5
CF
100
AcDbEntity
  8
switchs
 62
256
370
-1
 48
1.0
  6
BYLAYER
100
AcDbLine
 10
87.2007599999999741
 20
18.9771000000000356
 30
0.0
 11
87.2007599999999741
 21
18.0565000000000282
 31
0.0
  0
LINE
  5
D0
100
AcDbEntity
  8
switchs
 62
256
370
-1
 48
1.0
  6
BYLAYER
100
AcDbLine
 10
87.2007599999999741
 20
18.0565000000000282
 30
0.0
 11
85.5250599999999821
 21
18.0565000000000282
 31
0.0
  0
LINE
  5
D1
100
AcDbEntity
  8
switchs
 62
256
370
-1
 48
1.0
  6
BYLAYER
100
AcDbLine
 10
85.5250599999999821
 20
18.0565000000000282
 30
0.0
 11
85.5250599999999821
 21
14.8264000000000351
 31
0.0
  0
LINE
  5
D2
100
AcDbEntity
  8
switchs
 62
256
370
-1
 48
1.0
  6
BYLAYER
100
AcDbLine
 10
85.5250599999999821
 20
14.8264000000000351
 30
0.0
 11
84.6501599999999854
 21
14.8264000000000351
 31
0.0
  0
LINE
  5
D3
100
AcDbEntity
  8
switchs
 62
256
370
-1
 48
1.0
  6
BYLAYER
100
AcDbLine
 10
84.6501599999999854
 20
14.8264000000000351
 30
0.0
 11
84.6501599999999854
 21
12.0263000000000204
 31
0.0
  0
LINE
  5
D4
100
AcDbEntity
  8
switchs
 62
256
370
-1
 48
1.0
  6
BYLAYER
100
AcDbLine
 10
84.6501599999999854
 20
12.0263000000000204
 30
0.0
 11
85.5250599999999821
 21
12.0263000000000204
 31
0.0
  0
LINE
  5
D5
100
AcDbEntity
  8
switchs
 62
256
370
-1
 48
1.0
  6
BYLAYER
100
AcDbLine
 10
85.5250599999999821
 20
12.0263000000000204
 30
0.0
 11
85.5250599999999821
 21
5.7575500000000375
 31
0.0
  0
LINE
  5
D6
100
AcDbEntity
  8
switchs
 62
256
370
-1
 48
1.0
  6
BYLAYER
100
AcDbLine
 10
85.5250599999999821
 20
5.7575500000000375
 30
0.0
 11
87.2007599999999741
 21
5.7575500000000375
 31
0.0
  0
LINE
  5
D7
100
AcDbEntity
  8
switchs
 62
256
370
-1
 48
1.0
  6
BYLAYER
100
AcDbLine
 10
87.2007599999999741
 20
5.7575500000000375
 30
0.0
 11
87.2007599999999741
 21
4.7764000000000237
 31
0.0
  0
LINE
  5
D8
100
AcDbEntity
  8
switchs
 62
256
370
-1
 48
1.0
  6
BYLAYER
100
AcDbLine
 10
87.2007599999999741
 20
4.7764000000000237
 30
0.0
 11
90.4999599999999731
 21
4.7764000000000237
 31
0.0
  0
LINE
  5
D9
100
AcDbEntity
  8
switchs
 62
256
370
-1
 48
1.0
  6
BYLAYER
100
AcDbLine
 10
90.4999599999999731
 20
4.7764000000000237
 30
0.0
 11
90.4999599999999731
 21
5.7575500000000375
 31
0.0
  0
LINE
  5
DA
100
AcDbEntity
  8
switchs
 62
256
370
-1
 48
1.0
  6
BYLAYER
100
AcDbLine
 10
90.4999599999999731
 20
5.7575500000000375
 30
0.0
 11
92.1756599999999793
 21
5.7575500000000375
 31
0.0
  0
LINE
  5
DB
100
AcDbEntity
  8
switchs
 62
256
370
-1
 48
1.0
  6
BYLAYER
100
AcDbLine
 10
92.1756599999999793
 20
5.7575500000000375
 30
0.0
 11
92.1756599999999793
 21
10.2279000000000337
 31
0.0
  0
LINE
  5
DC
100
AcDbEntity
  8
switchs
 62
256
370
-1
 48
1.0
  6
BYLAYER
100
AcDbLine
 10
138.8767599999999618
 20
10.2278000000000304
 30
0.0
 11
138.8767599999999618
 21
9.627000000000038
 31
0.0
  0
LINE
  5
DD
100
AcDbEntity
  8
switchs
 62
256
370
-1
 48
1.0
  6
BYLAYER
100
AcDbLine
 10
138.8767599999999618
 20
9.627000000000038
 30
0.0
 11
138.0757599999999456
 21
9.627000000000038
 31
0.0
  0
LINE
  5
DE
100
AcDbEntity
  8
switchs
 62
256
370
-1
 48
1.0
  6
BYLAYER
100
AcDbLine
 10
138.0757599999999456
 20
9.627000000000038
 30
0.0
 11
138.0757599999999456
 21
6.5264000000000237
 31
0.0
  0
LINE
  5
DF
100
AcDbEntity
  8
switchs
 62
256
370
-1
 48
1.0
  6
BYLAYER
100
AcDbLine
 10
138.0757599999999456
 20
6.5264000000000237
 30
0.0
 11
138.8767599999999618
 21
6.5264000000000237
 31
0.0
  0
LINE
  5
E0
100
AcDbEntity
  8
switchs
 62
256
370
-1
 48
1.0
  6
BYLAYER
100
AcDbLine
 10
138.8767599999999618
 20
6.5264000000000237
 30
0.0
 11
138.8767599999999618
 21
5.5259600000000262
 31
0.0
  0
LINE
  5
E1
100
AcDbEntity
  8
switchs
 62
256
370
-1
 48
1.0
  6
BYLAYER
100
AcDbLine
 10
138.8767599999999618
 20
5.5259600000000262
 30
0.0
 11
152.875759999999957
 21
5.5259600000000262
 31
0.0
  0
LINE
  5
E2
100
AcDbEntity
  8
switchs
 62
256
370
-1
 48
1.0
  6
BYLAYER
100
AcDbLine
 10
152.875759999999957
 20
5.5259600000000262
 30
0.0
 11
152.875759999999957
 21
6.5264000000000237
 31
0.0
  0
LINE
  5
E3
100
AcDbEntity
  8
switchs
 62
256
370
-1
 48
1.0
  6
BYLAYER
100
AcDbLine
 10
152.875759999999957
 20
6.5264000000000237
 30
0.0
 11
153.6767599999999447
 21
6.5264000000000237
 31
0.0
  0
LINE
  5
E4
100
AcDbEntity
  8
switchs
 62
256
370
-1
 48
1.0
  6
BYLAYER
100
AcDbLine
 10
153.6767599999999447
 20
6.5264000000000237
 30
0.0
 11
153.6767599999999447
 21
9.627000000000038
 31
0.0
  0
LINE
  5
E5
100
AcDbEntity
  8
switchs
 62
256
370
-1
 48
1.0
  6
BYLAYER
100
AcDbLine
 10
153.6767599999999447
 20
9.627000000000038
 30
0.0
 11
152.875759999999957
 21
9.627000000000038
 31
0.0
  0
LINE
  5
E6
100
AcDbEntity
  8
switchs
 62
256
370
-1
 48
1.0
  6
BYLAYER
100
AcDbLine
 10
152.875759999999957
 20
9.627000000000038
 30
0.0
 11
152.875759999999957
 21
10.2278000000000304
 31
0.0
  0
LINE
  5
E7
100
AcDbEntity
  8
switchs
 62
256
370
-1
 48
1.0
  6
BYLAYER
100
AcDbLine
 10
180.5247599999999579
 20
10.2279000000000337
 30
0.0
 11
180.5247599999999579
 21
5.7575500000000375
 31
0.0
  0
LINE
  5
E8
100
AcDbEntity
  8
switchs
 62
256
370
-1
 48
1.0
  6
BYLAYER
100
AcDbLine
 10
180.5247599999999579
 20
5.7575500000000375
 30
0.0
 11
182.1997599999999693
 21
5.7575500000000375
 31
0.0
  0
LINE
  5
E9
100
AcDbEntity
  8
switchs
 62
256
370
-1
 48
1.0
  6
BYLAYER
100
AcDbLine
 10
182.1997599999999693
 20
5.7575500000000375
 30
0.0
 11
182.1997599999999693
 21
4.7764000000000237
 31
0.0
  0
LINE
  5
EA
100
AcDbEntity
  8
switchs
 62
256
370
-1
 48
1.0
  6
BYLAYER
100
AcDbLine
 10
182.1997599999999693
 20
4.7764000000000237
 30
0.0
 11
185.4987599999999759
 21
4.7764000000000237
 31
0.0
  0
LINE
  5
EB
100
AcDbEntity
  8
switchs
 62
256
370
-1
 48
1.0
  6
BYLAYER
100
AcDbLine
 10
185.4987599999999759
 20
4.7764000000000237
 30
0.0
 11
185.4987599999999759
 21
5.7575500000000375
 31
0.0
  0
LINE
  5
EC
100
AcDbEntity
  8
switchs
 62
256
370
-1
 48
1.0
  6
BYLAYER
100
AcDbLine
 10
185.4987599999999759
 20
5.7575500000000375
 30
0.0
 11
187.1747599999999636
 21
5.7575500000000375
 31
0.0
  0
LINE
  5
ED
100
AcDbEntity
  8
switchs
 62
256
370
-1
 48
1.0
  6
BYLAYER
100
AcDbLine
 10
187.1747599999999636
 20
5.7575500000000375
 30
0.0
 11
187.1747599999999636
 21
12.0263000000000204
 31
0.0
  0
LINE
  5
EE
100
AcDbEntity
  8
switchs
 62
256
370
-1
 48
1.0
  6
BYLAYER
100
AcDbLine
 10
187.1747599999999636
 20
12.0263000000000204
 30
0.0
 11
188.0497599999999636
 21
12.0263000000000204
 31
0.0
  0
LINE
  5
EF
100
AcDbEntity
  8
switchs
 62
256
370
-1
 48
1.0
  6
BYLAYER
100
AcDbLine
 10
188.0497599999999636
 20
12.0263000000000204
 30
0.0
 11
188.0497599999999636
 21
14.8264000000000351
 31
0.0
  0
LINE
  5
F0
100
AcDbEntity
  8
switchs
 62
256
370
-1
 48
1.0
  6
BYLAYER
100
AcDbLine
 10
188.0497599999999636
 20
14.8264000000000351
 30
0.0
 11
187.1747599999999636
 21
14.8264000000000351
 31
0.0
  0
LINE
  5
F1
100
AcDbEntity
  8
switchs
 62
256
370
-1
 48
1.0
  6
BYLAYER
100
AcDbLine
 10
187.1747599999999636
 20
14.8264000000000351
 30
0.0
 11
187.1747599999999636
 21
18.0565000000000282
 31
0.0
  0
LINE
  5
F2
100
AcDbEntity
  8
switchs
 62
256
370
-1
 48
1.0
  6
BYLAYER
100
AcDbLine
 10
187.1747599999999636
 20
18.0565000000000282
 30
0.0
 11
185.4987599999999759
 21
18.0565000000000282
 31
0.0
  0
LINE
  5
F3
100
AcDbEntity
  8
switchs
 62
256
370
-1
 48
1.0
  6
BYLAYER
100
AcDbLine
 10
185.4987599999999759
 20
18.0565000000000282
 30
0.0
 11
185.4987599999999759
 21
18.9771000000000356
 31
0.0
  0
LINE
  5
F4
100
AcDbEntity
  8
switchs
 62
256
370
-1
 48
1.0
  6
BYLAYER
100
AcDbLine
 10
185.4987599999999759
 20
18.9771000000000356
 30
0.0
 11
182.1997599999999693
 21
18.9771000000000356
 31
0.0
  0
LINE
  5
F5
100
AcDbEntity
  8
switchs
 62
256
370
-1
 48
1.0
  6
BYLAYER
100
AcDbLine
 10
182.1997599999999693
 20
18.9771000000000356
 30
0.0
 11
182.1997599999999693
 21
18.0565000000000282
 31
0.0
  0
LINE
  5
F6
100
AcDbEntity
  8
switchs
 62
256
370
-1
 48
1.0
  6
BYLAYER
100
AcDbLine
 10
182.1997599999999693
 20
18.0565000000000282
 30
0.0
 11
180.5247599999999579
 21
18.0565000000000282
 31
0.0
  0
LINE
  5
F7
100
AcDbEntity
  8
switchs
 62
256
370
-1
 48
1.0
  6
BYLAYER
100
AcDbLine
 10
180.5247599999999579
 20
18.0565000000000282
 30
0.0
 11
180.5247599999999579
 21
14.8264000000000351
 31
0.0
  0
LINE
  5
F8
100
AcDbEntity
  8
switchs
 62
256
370
-1
 48
1.0
  6
BYLAYER
100
AcDbLine
 10
152.875759999999957
 20
14.8263000000000318
 30
0.0
 11
152.875759999999957
 21
15.4272000000000276
 31
0.0
  0
LINE
  5
F9
100
AcDbEntity
  8
switchs
 62
256
370
-1
 48
1.0
  6
BYLAYER
100
AcDbLine
 10
152.875759999999957
 20
15.4272000000000276
 30
0.0
 11
153.6767599999999447
 21
15.4272000000000276
 31
0.0
  0
LINE
  5
FA
100
AcDbEntity
  8
switchs
 62
256
370
-1
 48
1.0
  6
BYLAYER
100
AcDbLine
 10
153.6767599999999447
 20
15.4272000000000276
 30
0.0
 11
153.6767599999999447
 21
18.5264000000000237
 31
0.0
  0
LINE
  5
FB
100
AcDbEntity
  8
switchs
 62
256
370
-1
 48
1.0
  6
BYLAYER
100
AcDbLine
 10
153.6767599999999447
 20
18.5264000000000237
 30
0.0
 11
152.875759999999957
 21
18.5264000000000237
 31
0.0
  0
LINE
  5
FC
100
AcDbEntity
  8
switchs
 62
256
370
-1
 48
1.0
  6
BYLAYER
100
AcDbLine
 10
152.875759999999957
 20
18.5264000000000237
 30
0.0
 11
152.875759999999957
 21
19.526800000000037
 31
0.0
  0
LINE
  5
FD
100
AcDbEntity
  8
switchs
 62
256
370
-1
 48
1.0
  6
BYLAYER
100
AcDbLine
 10
152.875759999999957
 20
19.526800000000037
 30
0.0
 11
138.8767599999999618
 21
19.526800000000037
 31
0.0
  0
LINE
  5
FE
100
AcDbEntity
  8
switchs
 62
256
370
-1
 48
1.0
  6
BYLAYER
100
AcDbLine
 10
34.0996999999999701
 20
19.5254000000000332
 30
0.0
 11
34.0996999999999701
 21
18.5250000000000341
 31
0.0
  0
LINE
  5
FF
100
AcDbEntity
  8
switchs
 62
256
370
-1
 48
1.0
  6
BYLAYER
100
AcDbLine
 10
34.0996999999999701
 20
18.5250000000000341
 30
0.0
 11
33.3002999999999787
 21
18.5250000000000341
 31
0.0
  0
LINE
  5
100
100
AcDbEntity
  8
switchs
 62
256
370
-1
 48
1.0
  6
BYLAYER
100
AcDbLine
 10
33.3002999999999787
 20
18.5250000000000341
 30
0.0
 11
33.3002999999999787
 21
15.4258000000000379
 31
0.0
  0
LINE
  5
101
100
AcDbEntity
  8
switchs
 62
256
370
-1
 48
1.0
  6
BYLAYER
100
AcDbLine
 10
33.3002999999999787
 20
15.4258000000000379
 30
0.0
 11
34.0996999999999701
 21
15.4258000000000379
 31
0.0
  0
LINE
  5
102
100
AcDbEntity
  8
switchs
 62
256
370
-1
 48
1.0
  6
BYLAYER
100
AcDbLine
 10
34.0996999999999701
 20
15.4258000000000379
 30
0.0
 11
34.0996999999999701
 21
9.6256000000000483
 31
0.0
  0
LINE
  5
103
100
AcDbEntity
  8
switchs
 62
256
370
-1
 48
1.0
  6
BYLAYER
100
AcDbLine
 10
34.0996999999999701
 20
9.6256000000000483
 30
0.0
 11
33.3002999999999787
 21
9.6256000000000483
 31
0.0
  0
LINE
  5
104
100
AcDbEntity
  8
switchs
 62
256
370
-1
 48
1.0
  6
BYLAYER
100
AcDbLine
 10
33.3002999999999787
 20
9.6256000000000483
 30
0.0
 11
33.3002999999999787
 21
6.5250000000000341
 31
0.0
  0
LINE
  5
105
100
AcDbEntity
  8
switchs
 62
256
370
-1
 48
1.0
  6
BYLAYER
100
AcDbLine
 10
33.3002999999999787
 20
6.5250000000000341
 30
0.0
 11
34.0996999999999701
 21
6.5250000000000341
 31
0.0
  0
LINE
  5
106
100
AcDbEntity
  8
switchs
 62
256
370
-1
 48
1.0
  6
BYLAYER
100
AcDbLine
 10
34.0996999999999701
 20
6.5250000000000341
 30
0.0
 11
34.0996999999999701
 21
5.5245600000000366
 31
0.0
  0
LINE
  5
107
100
AcDbEntity
  8
switchs
 62
256
370
-1
 48
1.0
  6
BYLAYER
100
AcDbLine
 10
34.0996999999999701
 20
5.5245600000000366
 30
0.0
 11
48.100399999999965
 21
5.5245600000000366
 31
0.0
  0
LINE
  5
108
100
AcDbEntity
  8
switchs
 62
256
370
-1
 48
1.0
  6
BYLAYER
100
AcDbLine
 10
48.100399999999965
 20
5.5245600000000366
 30
0.0
 11
48.100399999999965
 21
6.5250000000000341
 31
0.0
  0
LINE
  5
109
100
AcDbEntity
  8
switchs
 62
256
370
-1
 48
1.0
  6
BYLAYER
100
AcDbLine
 10
48.100399999999965
 20
6.5250000000000341
 30
0.0
 11
48.8996999999999815
 21
6.5250000000000341
 31
0.0
  0
LINE
  5
10A
100
AcDbEntity
  8
switchs
 62
256
370
-1
 48
1.0
  6
BYLAYER
100
AcDbLine
 10
48.8996999999999815
 20
6.5250000000000341
 30
0.0
 11
48.8996999999999815
 21
9.6256000000000483
 31
0.0
  0
LINE
  5
10B
100
AcDbEntity
  8
switchs
 62
256
370
-1
 48
1.0
  6
BYLAYER
100
AcDbLine
 10
48.8996999999999815
 20
9.6256000000000483
 30
0.0
 11
48.100399999999965
 21
9.6256000000000483
 31
0.0
  0
CIRCLE
  5
10C
100
AcDbEntity
  8
open
 62
256
370
-1
 48
1.0
  6
BYLAYER
100
AcDbCircle
 10
0.0
 20
101.25030000000001
 30
0.0
 40
1.6000000000000001
  0
LINE
  5
10D
100
AcDbEntity
  8
switchs
 62
256
370
-1
 48
1.0
  6
BYLAYER
100
AcDbLine
 10
48.100399999999965
 20
9.6256000000000483
 30
0.0
 11
48.100399999999965
 21
15.4258000000000379
 31
0.0
  0
LINE
  5
10E
100
AcDbEntity
  8
open
 62
256
370
-1
 48
1.0
  6
BYLAYER
100
AcDbLine
 10
2.9999699999999905
 20
98.2502999999999957
 30
0.0
 11
14.9062999999999874
 21
98.2502999999999957
 31
0.0
  0
LINE
  5
10F
100
AcDbEntity
  8
switchs
 62
256
370
-1
 48
1.0
  6
BYLAYER
100
AcDbLine
 10
48.100399999999965
 20
15.4258000000000379
 30
0.0
 11
48.8996999999999815
 21
15.4258000000000379
 31
0.0
  0
LINE
  5
110
100
AcDbEntity
  8
open
 62
256
370
-1
 48
1.0
  6
BYLAYER
100
AcDbLine
 10
14.9062999999999874
 20
98.2502999999999957
 30
0.0
 11
14.9062999999999874
 21
102.2500335529339708
 31
0.0
  0
LINE
  5
111
100
AcDbEntity
  8
switchs
 62
256
370
-1
 48
1.0
  6
BYLAYER
100
AcDbLine
 10
48.8996999999999815
 20
15.4258000000000379
 30
0.0
 11
48.8996999999999815
 21
18.5250000000000341
 31
0.0
  0
LINE
  5
112
100
AcDbEntity
  8
open
 62
256
370
-1
 48
1.0
  6
BYLAYER
100
AcDbLine
 10
290.7502999999999815
 20
98.2502999999999957
 30
0.0
 11
28.9062999999999874
 21
98.2502999999999957
 31
0.0
  0
LINE
  5
113
100
AcDbEntity
  8
switchs
 62
256
370
-1
 48
1.0
  6
BYLAYER
100
AcDbLine
 10
48.8996999999999815
 20
18.5250000000000341
 30
0.0
 11
48.100399999999965
 21
18.5250000000000341
 31
0.0
  0
LINE
  5
114
100
AcDbEntity
  8
open
 62
256
370
-1
 48
1.0
  6
BYLAYER
100
AcDbLine
 10
28.9062999999999874
 20
102.2506453044284598
 30
0.0
 11
28.9062999999999874
 21
98.2502999999999957
 31
0.0
  0
LINE
  5
115
100
AcDbEntity
  8
switchs
 62
256
370
-1
 48
1.0
  6
BYLAYER
100
AcDbLine
 10
48.100399999999965
 20
18.5250000000000341
 30
0.0
 11
48.100399999999965
 21
19.5254000000000332
 31
0.0
  0
LINE
  5
116
100
AcDbEntity
  8
open
 62
256
370
-1
 48
1.0
  6
BYLAYER
100
AcDbLine
 10
30.9062999993135463
 20
104.2505929043685313
 30
0.0
 11
294.7513000000000147
 21
104.2502999999999957
 31
0.0
  0
LINE
  5
117
100
AcDbEntity
  8
switchs
 62
256
370
-1
 48
1.0
  6
BYLAYER
100
AcDbLine
 10
48.100399999999965
 20
19.5254000000000332
 30
0.0
 11
34.0996999999999701
 21
19.5254000000000332
 31
0.0
  0
ARC
  5
118
100
AcDbEntity
  8
open
 62
256
370
-1
 48
1.0
  6
BYLAYER
100
AcDbCircle
 10
294.7513000000000147
 20
102.2502999999999957
 30
0.0
 40
2.0
100
AcDbArc
 50
0.0
 51
90.0
  0
LINE
  5
119
100
AcDbEntity
  8
switchs
 62
256
370
-1
 48
1.0
  6
BYLAYER
100
AcDbLine
 10
57.9121599999999574
 20
19.526800000000037
 30
0.0
 11
57.9121599999999574
 21
18.5264000000000237
 31
0.0
  0
CIRCLE
  5
11A
100
AcDbEntity
  8
open
 62
256
370
-1
 48
1.0
  6
BYLAYER
100
AcDbCircle
 10
146.8752999999999815
 20
101.2502999999999957
 30
0.0
 40
1.6000000000000001
  0
LINE
  5
11B
100
AcDbEntity
  8
switchs
 62
256
370
-1
 48
1.0
  6
BYLAYER
100
AcDbLine
 10
57.9121599999999574
 20
18.5264000000000237
 30
0.0
 11
57.112759999999966
 21
18.5264000000000237
 31
0.0
  0
ARC
  5
11C
100
AcDbEntity
  8
open
 62
256
370
-1
 48
1.0
  6
BYLAYER
100
AcDbCircle
 10
-0.9996579500272276
 20
102.2506761162491955
 30
0.0
 40
2.0
100
AcDbArc
 50
90.0133599427292523
 51
180.0286494485499986
  0
LINE
  5
11D
100
AcDbEntity
  8
switchs
 62
256
370
-1
 48
1.0
  6
BYLAYER
100
AcDbLine
 10
57.112759999999966
 20
18.5264000000000237
 30
0.0
 11
57.112759999999966
 21
15.4272000000000276
 31
0.0
  0
ARC
  5
11E
100
AcDbEntity
  8
open
 62
256
370
-1
 48
1.0
  6
BYLAYER
100
AcDbCircle
 10
-1.0010359972731635
 20
-0.9999934829432178
 30
0.0
 40
2.0
100
AcDbArc
 50
180.0312392412703559
 51
270.0165011066091552
  0
LINE
  5
11F
100
AcDbEntity
  8
switchs
 62
256
370
-1
 48
1.0
  6
BYLAYER
100
AcDbLine
 10
57.112759999999966
 20
15.4272000000000276
 30
0.0
 11
57.9121599999999574
 21
15.4272000000000276
 31
0.0
  0
LINE
  5
120
100
AcDbEntity
  8
switchs
 62
256
370
-1
 48
1.0
  6
BYLAYER
100
AcDbLine
 10
57.9121599999999574
 20
15.4272000000000276
 30
0.0
 11
57.9121599999999574
 21
9.627000000000038
 31
0.0
  0
LINE
  5
121
100
AcDbEntity
  8
switchs
 62
256
370
-1
 48
1.0
  6
BYLAYER
100
AcDbLine
 10
57.9121599999999574
 20
9.627000000000038
 30
0.0
 11
57.112759999999966
 21
9.627000000000038
 31
0.0
  0
LINE
  5
122
100
AcDbEntity
  8
switchs
 62
256
370
-1
 48
1.0
  6
BYLAYER
100
AcDbLine
 10
57.112759999999966
 20
9.627000000000038
 30
0.0
 11
57.112759999999966
 21
6.5264000000000237
 31
0.0
  0
LINE
  5
123
100
AcDbEntity
  8
switchs
 62
256
370
-1
 48
1.0
  6
BYLAYER
100
AcDbLine
 10
57.112759999999966
 20
6.5264000000000237
 30
0.0
 11
57.9121599999999574
 21
6.5264000000000237
 31
0.0
  0
LINE
  5
124
100
AcDbEntity
  8
switchs
 62
256
370
-1
 48
1.0
  6
BYLAYER
100
AcDbLine
 10
57.9121599999999574
 20
6.5264000000000237
 30
0.0
 11
57.9121599999999574
 21
5.5259600000000262
 31
0.0
  0
LINE
  5
125
100
AcDbEntity
  8
switchs
 62
256
370
-1
 48
1.0
  6
BYLAYER
100
AcDbLine
 10
57.9121599999999574
 20
5.5259600000000262
 30
0.0
 11
71.9128599999999523
 21
5.5259600000000262
 31
0.0
  0
LINE
  5
126
100
AcDbEntity
  8
switchs
 62
256
370
-1
 48
1.0
  6
BYLAYER
100
AcDbLine
 10
71.9128599999999523
 20
5.5259600000000262
 30
0.0
 11
71.9128599999999523
 21
6.5264000000000237
 31
0.0
  0
LINE
  5
127
100
AcDbEntity
  8
switchs
 62
256
370
-1
 48
1.0
  6
BYLAYER
100
AcDbLine
 10
71.9128599999999523
 20
6.5264000000000237
 30
0.0
 11
72.7122599999999579
 21
6.5264000000000237
 31
0.0
  0
LINE
  5
128
100
AcDbEntity
  8
switchs
 62
256
370
-1
 48
1.0
  6
BYLAYER
100
AcDbLine
 10
72.7122599999999579
 20
6.5264000000000237
 30
0.0
 11
72.7122599999999579
 21
9.627000000000038
 31
0.0
  0
CIRCLE
  5
129
100
AcDbEntity
  8
open
 62
256
370
-1
 48
1.0
  6
BYLAYER
100
AcDbCircle
 10
293.7513000000000716
 20
0.0000000000001634
 30
0.0
 40
1.6000000000000001
  0
LINE
  5
12A
100
AcDbEntity
  8
switchs
 62
256
370
-1
 48
1.0
  6
BYLAYER
100
AcDbLine
 10
72.7122599999999579
 20
9.627000000000038
 30
0.0
 11
71.9128599999999523
 21
9.627000000000038
 31
0.0
  0
CIRCLE
  5
12B
100
AcDbEntity
  8
open
 62
256
370
-1
 48
1.0
  6
BYLAYER
100
AcDbCircle
 10
146.8752999999999815
 20
0.0000000000000071
 30
0.0
 40
1.6000000000000001
  0
LINE
  5
12C
100
AcDbEntity
  8
switchs
 62
256
370
-1
 48
1.0
  6
BYLAYER
100
AcDbLine
 10
71.9128599999999523
 20
9.627000000000038
 30
0.0
 11
71.9128599999999523
 21
15.4272000000000276
 31
0.0
  0
CIRCLE
  5
12D
100
AcDbEntity
  8
open
 62
256
370
-1
 48
1.0
  6
BYLAYER
100
AcDbCircle
 10
0.0
 20
0.0
 30
0.0
 40
1.6000000000000001
  0
LINE
  5
12E
100
AcDbEntity
  8
switchs
 62
256
370
-1
 48
1.0
  6
BYLAYER
100
AcDbLine
 10
71.9128599999999523
 20
15.4272000000000276
 30
0.0
 11
72.7122599999999579
 21
15.4272000000000276
 31
0.0
  0
LINE
  5
12F
100
AcDbEntity
  8
switchs
 62
256
370
-1
 48
1.0
  6
BYLAYER
100
AcDbLine
 10
72.7122599999999579
 20
15.4272000000000276
 30
0.0
 11
72.7122599999999579
 21
18.5264000000000237
 31
0.0
  0
LINE
  5
130
100
AcDbEntity
  8
switchs
 62
256
370
-1
 48
1.0
  6
BYLAYER
100
AcDbLine
 10
72.7122599999999579
 20
18.5264000000000237
 30
0.0
 11
71.9128599999999523
 21
18.5264000000000237
 31
0.0
  0
LINE
  5
131
100
AcDbEntity
  8
switchs
 62
256
370
-1
 48
1.0
  6
BYLAYER
100
AcDbLine
 10
71.9128599999999523
 20
18.5264000000000237
 30
0.0
 11
71.9128599999999523
 21
19.526800000000037
 31
0.0
  0
CIRCLE
  5
132
100
AcDbEntity
  8
open
 62
256
370
-1
 48
1.0
  6
BYLAYER
100
AcDbCircle
 10
293.7513000000000716
 20
101.2503000000001094
 30
0.0
 40
1.6000000000000001
  0
LINE
  5
133
100
AcDbEntity
  8
switchs
 62
256
370
-1
 48
1.0
  6
BYLAYER
100
AcDbLine
 10
71.9128599999999523
 20
19.526800000000037
 30
0.0
 11
57.9121599999999574
 21
19.526800000000037
 31
0.0
  0
LINE
  5
134
100
AcDbEntity
  8
switchs
 62
256
370
-1
 48
1.0
  6
BYLAYER
100
AcDbLine
 10
200.7872999999999593
 20
19.5254000000000332
 30
0.0
 11
200.7872999999999593
 21
18.5250000000000341
 31
0.0
  0
LINE
  5
135
100
AcDbEntity
  8
switchs
 62
256
370
-1
 48
1.0
  6
BYLAYER
100
AcDbLine
 10
200.7872999999999593
 20
18.5250000000000341
 30
0.0
 11
199.9862999999999715
 21
18.5250000000000341
 31
0.0
  0
LINE
  5
136
100
AcDbEntity
  8
switchs
 62
256
370
-1
 48
1.0
  6
BYLAYER
100
AcDbLine
 10
199.9862999999999715
 20
18.5250000000000341
 30
0.0
 11
199.9862999999999715
 21
15.4258000000000379
 31
0.0
  0
LINE
  5
137
100
AcDbEntity
  8
switchs
 62
256
370
-1
 48
1.0
  6
BYLAYER
100
AcDbLine
 10
199.9862999999999715
 20
15.4258000000000379
 30
0.0
 11
200.7872999999999593
 21
15.4258000000000379
 31
0.0
  0
LINE
  5
138
100
AcDbEntity
  8
switchs
 62
256
370
-1
 48
1.0
  6
BYLAYER
100
AcDbLine
 10
200.7872999999999593
 20
15.4258000000000379
 30
0.0
 11
200.7872999999999593
 21
9.6256000000000483
 31
0.0
  0
LINE
  5
139
100
AcDbEntity
  8
switchs
 62
256
370
-1
 48
1.0
  6
BYLAYER
100
AcDbLine
 10
200.7872999999999593
 20
9.6256000000000483
 30
0.0
 11
199.9862999999999715
 21
9.6256000000000483
 31
0.0
  0
LINE
  5
13A
100
AcDbEntity
  8
switchs
 62
256
370
-1
 48
1.0
  6
BYLAYER
100
AcDbLine
 10
199.9862999999999715
 20
9.6256000000000483
 30
0.0
 11
199.9862999999999715
 21
6.5250000000000341
 31
0.0
  0
LINE
  5
13B
100
AcDbEntity
  8
switchs
 62
256
370
-1
 48
1.0
  6
BYLAYER
100
AcDbLine
 10
199.9862999999999715
 20
6.5250000000000341
 30
0.0
 11
200.7872999999999593
 21
6.5250000000000341
 31
0.0
  0
LINE
  5
13C
100
AcDbEntity
  8
switchs
 62
256
370
-1
 48
1.0
  6
BYLAYER
100
AcDbLine
 10
200.7872999999999593
 20
6.5250000000000341
 30
0.0
 11
200.7872999999999593
 21
5.5245600000000366
 31
0.0
  0
LINE
  5
13D
100
AcDbEntity
  8
switchs
 62
256
370
-1
 48
1.0
  6
BYLAYER
100
AcDbLine
 10
200.7872999999999593
 20
5.5245600000000366
 30
0.0
 11
214.7862999999999545
 21
5.5245600000000366
 31
0.0
  0
LINE
  5
13E
100
AcDbEntity
  8
switchs
 62
256
370
-1
 48
1.0
  6
BYLAYER
100
AcDbLine
 10
214.7862999999999545
 20
5.5245600000000366
 30
0.0
 11
214.7862999999999545
 21
6.5250000000000341
 31
0.0
  0
LINE
  5
13F
100
AcDbEntity
  8
switchs
 62
256
370
-1
 48
1.0
  6
BYLAYER
100
AcDbLine
 10
214.7862999999999545
 20
6.5250000000000341
 30
0.0
 11
215.5872999999999706
 21
6.5250000000000341
 31
0.0
  0
LINE
  5
140
100
AcDbEntity
  8
switchs
 62
256
370
-1
 48
1.0
  6
BYLAYER
100
AcDbLine
 10
215.5872999999999706
 20
6.5250000000000341
 30
0.0
 11
215.5872999999999706
 21
9.6256000000000483
 31
0.0
  0
LINE
  5
141
100
AcDbEntity
  8
switchs
 62
256
370
-1
 48
1.0
  6
BYLAYER
100
AcDbLine
 10
215.5872999999999706
 20
9.6256000000000483
 30
0.0
 11
214.7862999999999545
 21
9.6256000000000483
 31
0.0
  0
LINE
  5
142
100
AcDbEntity
  8
switchs
 62
256
370
-1
 48
1.0
  6
BYLAYER
100
AcDbLine
 10
214.7862999999999545
 20
9.6256000000000483
 30
0.0
 11
214.7862999999999545
 21
15.4258000000000379
 31
0.0
  0
LINE
  5
143
100
AcDbEntity
  8
switchs
 62
256
370
-1
 48
1.0
  6
BYLAYER
100
AcDbLine
 10
214.7862999999999545
 20
15.4258000000000379
 30
0.0
 11
215.5872999999999706
 21
15.4258000000000379
 31
0.0
  0
LINE
  5
144
100
AcDbEntity
  8
switchs
 62
256
370
-1
 48
1.0
  6
BYLAYER
100
AcDbLine
 10
215.5872999999999706
 20
15.4258000000000379
 30
0.0
 11
215.5872999999999706
 21
18.5250000000000341
 31
0.0
  0
LINE
  5
145
100
AcDbEntity
  8
switchs
 62
256
370
-1
 48
1.0
  6
BYLAYER
100
AcDbLine
 10
215.5872999999999706
 20
18.5250000000000341
 30
0.0
 11
214.7862999999999545
 21
18.5250000000000341
 31
0.0
  0
LINE
  5
146
100
AcDbEntity
  8
switchs
 62
256
370
-1
 48
1.0
  6
BYLAYER
100
AcDbLine
 10
214.7862999999999545
 20
18.5250000000000341
 30
0.0
 11
214.7862999999999545
 21
19.5254000000000332
 31
0.0
  0
LINE
  5
147
100
AcDbEntity
  8
switchs
 62
256
370
-1
 48
1.0
  6
BYLAYER
100
AcDbLine
 10
214.7862999999999545
 20
19.5254000000000332
 30
0.0
 11
200.7872999999999593
 21
19.5254000000000332
 31
0.0
  0
LINE
  5
148
100
AcDbEntity
  8
switchs
 62
256
370
-1
 48
1.0
  6
BYLAYER
100
AcDbLine
 10
224.5992999999999711
 20
19.5254000000000332
 30
0.0
 11
224.5992999999999711
 21
18.5250000000000341
 31
0.0
  0
LINE
  5
149
100
AcDbEntity
  8
switchs
 62
256
370
-1
 48
1.0
  6
BYLAYER
100
AcDbLine
 10
224.5992999999999711
 20
18.5250000000000341
 30
0.0
 11
223.7992999999999597
 21
18.5250000000000341
 31
0.0
  0
LINE
  5
14A
100
AcDbEntity
  8
switchs
 62
256
370
-1
 48
1.0
  6
BYLAYER
100
AcDbLine
 10
223.7992999999999597
 20
18.5250000000000341
 30
0.0
 11
223.7992999999999597
 21
15.4258000000000379
 31
0.0
  0
LINE
  5
14B
100
AcDbEntity
  8
switchs
 62
256
370
-1
 48
1.0
  6
BYLAYER
100
AcDbLine
 10
223.7992999999999597
 20
15.4258000000000379
 30
0.0
 11
224.5992999999999711
 21
15.4258000000000379
 31
0.0
  0
LINE
  5
14C
100
AcDbEntity
  8
switchs
 62
256
370
-1
 48
1.0
  6
BYLAYER
100
AcDbLine
 10
224.5992999999999711
 20
15.4258000000000379
 30
0.0
 11
224.5992999999999711
 21
9.6256000000000483
 31
0.0
  0
LINE
  5
14D
100
AcDbEntity
  8
switchs
 62
256
370
-1
 48
1.0
  6
BYLAYER
100
AcDbLine
 10
224.5992999999999711
 20
9.6256000000000483
 30
0.0
 11
223.7992999999999597
 21
9.6256000000000483
 31
0.0
  0
LINE
  5
14E
100
AcDbEntity
  8
switchs
 62
256
370
-1
 48
1.0
  6
BYLAYER
100
AcDbLine
 10
223.7992999999999597
 20
9.6256000000000483
 30
0.0
 11
223.7992999999999597
 21
6.5250000000000341
 31
0.0
  0
LINE
  5
14F
100
AcDbEntity
  8
switchs
 62
256
370
-1
 48
1.0
  6
BYLAYER
100
AcDbLine
 10
223.7992999999999597
 20
6.5250000000000341
 30
0.0
 11
224.5992999999999711
 21
6.5250000000000341
 31
0.0
  0
LINE
  5
150
100
AcDbEntity
  8
switchs
 62
256
370
-1
 48
1.0
  6
BYLAYER
100
AcDbLine
 10
224.5992999999999711
 20
6.5250000000000341
 30
0.0
 11
224.5992999999999711
 21
5.5245600000000366
 31
0.0
  0
LINE
  5
151
100
AcDbEntity
  8
switchs
 62
256
370
-1
 48
1.0
  6
BYLAYER
100
AcDbLine
 10
224.5992999999999711
 20
5.5245600000000366
 30
0.0
 11
238.6002999999999474
 21
5.5245600000000366
 31
0.0
  0
LINE
  5
152
100
AcDbEntity
  8
switchs
 62
256
370
-1
 48
1.0
  6
BYLAYER
100
AcDbLine
 10
238.6002999999999474
 20
5.5245600000000366
 30
0.0
 11
238.6002999999999474
 21
6.5250000000000341
 31
0.0
  0
LINE
  5
153
100
AcDbEntity
  8
switchs
 62
256
370
-1
 48
1.0
  6
BYLAYER
100
AcDbLine
 10
238.6002999999999474
 20
6.5250000000000341
 30
0.0
 11
239.399299999999954
 21
6.5250000000000341
 31
0.0
  0
LINE
  5
154
100
AcDbEntity
  8
switchs
 62
256
370
-1
 48
1.0
  6
BYLAYER
100
AcDbLine
 10
239.399299999999954
 20
6.5250000000000341
 30
0.0
 11
239.399299999999954
 21
9.6256000000000483
 31
0.0
  0
LINE
  5
155
100
AcDbEntity
  8
switchs
 62
256
370
-1
 48
1.0
  6
BYLAYER
100
AcDbLine
 10
239.399299999999954
 20
9.6256000000000483
 30
0.0
 11
238.6002999999999474
 21
9.6256000000000483
 31
0.0
  0
LINE
  5
156
100
AcDbEntity
  8
switchs
 62
256
370
-1
 48
1.0
  6
BYLAYER
100
AcDbLine
 10
238.6002999999999474
 20
9.6256000000000483
 30
0.0
 11
238.6002999999999474
 21
15.4258000000000379
 31
0.0
  0
LINE
  5
157
100
AcDbEntity
  8
switchs
 62
256
370
-1
 48
1.0
  6
BYLAYER
100
AcDbLine
 10
238.6002999999999474
 20
15.4258000000000379
 30
0.0
 11
239.399299999999954
 21
15.4258000000000379
 31
0.0
  0
LINE
  5
158
100
AcDbEntity
  8
switchs
 62
256
370
-1
 48
1.0
  6
BYLAYER
100
AcDbLine
 10
239.399299999999954
 20
15.4258000000000379
 30
0.0
 11
239.399299999999954
 21
18.5250000000000341
 31
0.0
  0
LINE
  5
159
100
AcDbEntity
  8
switchs
 62
256
370
-1
 48
1.0
  6
BYLAYER
100
AcDbLine
 10
239.399299999999954
 20
18.5250000000000341
 30
0.0
 11
238.6002999999999474
 21
18.5250000000000341
 31
0.0
  0
LINE
  5
15A
100
AcDbEntity
  8
switchs
 62
256
370
-1
 48
1.0
  6
BYLAYER
100
AcDbLine
 10
238.6002999999999474
 20
18.5250000000000341
 30
0.0
 11
238.6002999999999474
 21
19.5254000000000332
 31
0.0
  0
LINE
  5
15B
100
AcDbEntity
  8
switchs
 62
256
370
-1
 48
1.0
  6
BYLAYER
100
AcDbLine
 10
238.6002999999999474
 20
19.5254000000000332
 30
0.0
 11
224.5992999999999711
 21
19.5254000000000332
 31
0.0
  0
LINE
  5
15C
100
AcDbEntity
  8
switchs
 62
256
370
-1
 48
1.0
  6
BYLAYER
100
AcDbLine
 10
17.4307999999999588
 20
38.5754000000000303
 30
0.0
 11
17.4307999999999588
 21
37.5749000000000422
 31
0.0
  0
LINE
  5
15D
100
AcDbEntity
  8
switchs
 62
256
370
-1
 48
1.0
  6
BYLAYER
100
AcDbLine
 10
17.4307999999999588
 20
37.5749000000000422
 30
0.0
 11
16.631599999999974
 21
37.5749000000000422
 31
0.0
  0
LINE
  5
15E
100
AcDbEntity
  8
switchs
 62
256
370
-1
 48
1.0
  6
BYLAYER
100
AcDbLine
 10
16.631599999999974
 20
37.5749000000000422
 30
0.0
 11
16.631599999999974
 21
34.475700000000046
 31
0.0
  0
LINE
  5
15F
100
AcDbEntity
  8
switchs
 62
256
370
-1
 48
1.0
  6
BYLAYER
100
AcDbLine
 10
16.631599999999974
 20
34.475700000000046
 30
0.0
 11
17.4307999999999588
 21
34.475700000000046
 31
0.0
  0
LINE
  5
160
100
AcDbEntity
  8
switchs
 62
256
370
-1
 48
1.0
  6
BYLAYER
100
AcDbLine
 10
17.4307999999999588
 20
34.475700000000046
 30
0.0
 11
17.4307999999999588
 21
33.8749000000000393
 31
0.0
  0
LINE
  5
161
100
AcDbEntity
  8
switchs
 62
256
370
-1
 48
1.0
  6
BYLAYER
100
AcDbLine
 10
17.4307999999999588
 20
33.8749000000000393
 30
0.0
 11
15.8556999999999668
 21
33.8749000000000393
 31
0.0
  0
LINE
  5
162
100
AcDbEntity
  8
switchs
 62
256
370
-1
 48
1.0
  6
BYLAYER
100
AcDbLine
 10
15.8556999999999668
 20
33.8749000000000393
 30
0.0
 11
15.8556999999999668
 21
37.1050000000000466
 31
0.0
  0
LINE
  5
163
100
AcDbEntity
  8
switchs
 62
256
370
-1
 48
1.0
  6
BYLAYER
100
AcDbLine
 10
15.8556999999999668
 20
37.1050000000000466
 30
0.0
 11
14.1813999999999787
 21
37.1050000000000466
 31
0.0
  0
LINE
  5
164
100
AcDbEntity
  8
switchs
 62
256
370
-1
 48
1.0
  6
BYLAYER
100
AcDbLine
 10
14.1813999999999787
 20
37.1050000000000466
 30
0.0
 11
14.1813999999999787
 21
38.0257000000000289
 31
0.0
  0
LINE
  5
165
100
AcDbEntity
  8
switchs
 62
256
370
-1
 48
1.0
  6
BYLAYER
100
AcDbLine
 10
14.1813999999999787
 20
38.0257000000000289
 30
0.0
 11
10.8809999999999825
 21
38.0257000000000289
 31
0.0
  0
LINE
  5
166
100
AcDbEntity
  8
switchs
 62
256
370
-1
 48
1.0
  6
BYLAYER
100
AcDbLine
 10
10.8809999999999825
 20
38.0257000000000289
 30
0.0
 11
10.8809999999999825
 21
37.1050000000000466
 31
0.0
  0
LINE
  5
167
100
AcDbEntity
  8
switchs
 62
256
370
-1
 48
1.0
  6
BYLAYER
100
AcDbLine
 10
10.8809999999999825
 20
37.1050000000000466
 30
0.0
 11
9.2066999999999659
 21
37.1050000000000466
 31
0.0
  0
LINE
  5
168
100
AcDbEntity
  8
switchs
 62
256
370
-1
 48
1.0
  6
BYLAYER
100
AcDbLine
 10
9.2066999999999659
 20
37.1050000000000466
 30
0.0
 11
9.2066999999999659
 21
33.8749000000000393
 31
0.0
  0
LINE
  5
169
100
AcDbEntity
  8
switchs
 62
256
370
-1
 48
1.0
  6
BYLAYER
100
AcDbLine
 10
9.2066999999999659
 20
33.8749000000000393
 30
0.0
 11
8.3315999999999626
 21
33.8749000000000393
 31
0.0
  0
LINE
  5
16A
100
AcDbEntity
  8
switchs
 62
256
370
-1
 48
1.0
  6
BYLAYER
100
AcDbLine
 10
8.3315999999999626
 20
33.8749000000000393
 30
0.0
 11
8.3315999999999626
 21
31.0748000000000388
 31
0.0
  0
LINE
  5
16B
100
AcDbEntity
  8
switchs
 62
256
370
-1
 48
1.0
  6
BYLAYER
100
AcDbLine
 10
8.3315999999999626
 20
31.0748000000000388
 30
0.0
 11
9.2066999999999659
 21
31.0748000000000388
 31
0.0
  0
LINE
  5
16C
100
AcDbEntity
  8
switchs
 62
256
370
-1
 48
1.0
  6
BYLAYER
100
AcDbLine
 10
9.2066999999999659
 20
31.0748000000000388
 30
0.0
 11
9.2066999999999659
 21
24.8047000000000395
 31
0.0
  0
LINE
  5
16D
100
AcDbEntity
  8
switchs
 62
256
370
-1
 48
1.0
  6
BYLAYER
100
AcDbLine
 10
9.2066999999999659
 20
24.8047000000000395
 30
0.0
 11
10.8809999999999825
 21
24.8047000000000395
 31
0.0
  0
LINE
  5
16E
100
AcDbEntity
  8
switchs
 62
256
370
-1
 48
1.0
  6
BYLAYER
100
AcDbLine
 10
10.8809999999999825
 20
24.8047000000000395
 30
0.0
 11
10.8809999999999825
 21
23.8249000000000422
 31
0.0
  0
LINE
  5
16F
100
AcDbEntity
  8
switchs
 62
256
370
-1
 48
1.0
  6
BYLAYER
100
AcDbLine
 10
10.8809999999999825
 20
23.8249000000000422
 30
0.0
 11
14.1813999999999787
 21
23.8249000000000422
 31
0.0
  0
LINE
  5
170
100
AcDbEntity
  8
switchs
 62
256
370
-1
 48
1.0
  6
BYLAYER
100
AcDbLine
 10
14.1813999999999787
 20
23.8249000000000422
 30
0.0
 11
14.1813999999999787
 21
24.8047000000000395
 31
0.0
  0
LINE
  5
171
100
AcDbEntity
  8
switchs
 62
256
370
-1
 48
1.0
  6
BYLAYER
100
AcDbLine
 10
14.1813999999999787
 20
24.8047000000000395
 30
0.0
 11
15.8556999999999668
 21
24.8047000000000395
 31
0.0
  0
LINE
  5
172
100
AcDbEntity
  8
switchs
 62
256
370
-1
 48
1.0
  6
BYLAYER
100
AcDbLine
 10
15.8556999999999668
 20
24.8047000000000395
 30
0.0
 11
15.8556999999999668
 21
29.2750000000000341
 31
0.0
  0
LINE
  5
173
100
AcDbEntity
  8
switchs
 62
256
370
-1
 48
1.0
  6
BYLAYER
100
AcDbLine
 10
15.8556999999999668
 20
29.2750000000000341
 30
0.0
 11
17.4307999999999588
 21
29.2750000000000341
 31
0.0
  0
LINE
  5
174
100
AcDbEntity
  8
switchs
 62
256
370
-1
 48
1.0
  6
BYLAYER
100
AcDbLine
 10
17.4307999999999588
 20
29.2750000000000341
 30
0.0
 11
17.4307999999999588
 21
28.6756000000000313
 31
0.0
  0
LINE
  5
175
100
AcDbEntity
  8
switchs
 62
256
370
-1
 48
1.0
  6
BYLAYER
100
AcDbLine
 10
17.4307999999999588
 20
28.6756000000000313
 30
0.0
 11
16.631599999999974
 21
28.6756000000000313
 31
0.0
  0
LINE
  5
176
100
AcDbEntity
  8
switchs
 62
256
370
-1
 48
1.0
  6
BYLAYER
100
AcDbLine
 10
16.631599999999974
 20
28.6756000000000313
 30
0.0
 11
16.631599999999974
 21
25.5750000000000455
 31
0.0
  0
LINE
  5
177
100
AcDbEntity
  8
switchs
 62
256
370
-1
 48
1.0
  6
BYLAYER
100
AcDbLine
 10
16.631599999999974
 20
25.5750000000000455
 30
0.0
 11
17.4307999999999588
 21
25.5750000000000455
 31
0.0
  0
LINE
  5
178
100
AcDbEntity
  8
switchs
 62
256
370
-1
 48
1.0
  6
BYLAYER
100
AcDbLine
 10
17.4307999999999588
 20
25.5750000000000455
 30
0.0
 11
17.4307999999999588
 21
24.5746000000000322
 31
0.0
  0
LINE
  5
179
100
AcDbEntity
  8
switchs
 62
256
370
-1
 48
1.0
  6
BYLAYER
100
AcDbLine
 10
17.4307999999999588
 20
24.5746000000000322
 30
0.0
 11
31.4316999999999602
 21
24.5746000000000322
 31
0.0
  0
LINE
  5
17A
100
AcDbEntity
  8
switchs
 62
256
370
-1
 48
1.0
  6
BYLAYER
100
AcDbLine
 10
31.4316999999999602
 20
24.5746000000000322
 30
0.0
 11
31.4316999999999602
 21
25.5750000000000455
 31
0.0
  0
LINE
  5
17B
100
AcDbEntity
  8
switchs
 62
256
370
-1
 48
1.0
  6
BYLAYER
100
AcDbLine
 10
31.4316999999999602
 20
25.5750000000000455
 30
0.0
 11
32.2309999999999803
 21
25.5750000000000455
 31
0.0
  0
LINE
  5
17C
100
AcDbEntity
  8
switchs
 62
256
370
-1
 48
1.0
  6
BYLAYER
100
AcDbLine
 10
32.2309999999999803
 20
25.5750000000000455
 30
0.0
 11
32.2309999999999803
 21
28.6756000000000313
 31
0.0
  0
LINE
  5
17D
100
AcDbEntity
  8
switchs
 62
256
370
-1
 48
1.0
  6
BYLAYER
100
AcDbLine
 10
32.2309999999999803
 20
28.6756000000000313
 30
0.0
 11
31.4316999999999602
 21
28.6756000000000313
 31
0.0
  0
LINE
  5
17E
100
AcDbEntity
  8
switchs
 62
256
370
-1
 48
1.0
  6
BYLAYER
100
AcDbLine
 10
31.4316999999999602
 20
28.6756000000000313
 30
0.0
 11
31.4316999999999602
 21
29.2750000000000341
 31
0.0
  0
LINE
  5
17F
100
AcDbEntity
  8
switchs
 62
256
370
-1
 48
1.0
  6
BYLAYER
100
AcDbLine
 10
31.4316999999999602
 20
29.2750000000000341
 30
0.0
 11
33.0052999999999628
 21
29.2750000000000341
 31
0.0
  0
LINE
  5
180
100
AcDbEntity
  8
switchs
 62
256
370
-1
 48
1.0
  6
BYLAYER
100
AcDbLine
 10
33.0052999999999628
 20
29.2750000000000341
 30
0.0
 11
33.0052999999999628
 21
24.8047000000000395
 31
0.0
  0
LINE
  5
181
100
AcDbEntity
  8
switchs
 62
256
370
-1
 48
1.0
  6
BYLAYER
100
AcDbLine
 10
33.0052999999999628
 20
24.8047000000000395
 30
0.0
 11
34.680999999999969
 21
24.8047000000000395
 31
0.0
  0
LINE
  5
182
100
AcDbEntity
  8
switchs
 62
256
370
-1
 48
1.0
  6
BYLAYER
100
AcDbLine
 10
34.680999999999969
 20
24.8047000000000395
 30
0.0
 11
34.680999999999969
 21
23.8249000000000422
 31
0.0
  0
LINE
  5
183
100
AcDbEntity
  8
switchs
 62
256
370
-1
 48
1.0
  6
BYLAYER
100
AcDbLine
 10
34.680999999999969
 20
23.8249000000000422
 30
0.0
 11
37.9815999999999718
 21
23.8249000000000422
 31
0.0
  0
LINE
  5
184
100
AcDbEntity
  8
switchs
 62
256
370
-1
 48
1.0
  6
BYLAYER
100
AcDbLine
 10
37.9815999999999718
 20
23.8249000000000422
 30
0.0
 11
37.9815999999999718
 21
24.8047000000000395
 31
0.0
  0
LINE
  5
185
100
AcDbEntity
  8
switchs
 62
256
370
-1
 48
1.0
  6
BYLAYER
100
AcDbLine
 10
37.9815999999999718
 20
24.8047000000000395
 30
0.0
 11
39.6558999999999742
 21
24.8047000000000395
 31
0.0
  0
LINE
  5
186
100
AcDbEntity
  8
switchs
 62
256
370
-1
 48
1.0
  6
BYLAYER
100
AcDbLine
 10
39.6558999999999742
 20
24.8047000000000395
 30
0.0
 11
39.6558999999999742
 21
31.0748000000000388
 31
0.0
  0
LINE
  5
187
100
AcDbEntity
  8
switchs
 62
256
370
-1
 48
1.0
  6
BYLAYER
100
AcDbLine
 10
39.6558999999999742
 20
31.0748000000000388
 30
0.0
 11
40.5307999999999709
 21
31.0748000000000388
 31
0.0
  0
LINE
  5
188
100
AcDbEntity
  8
switchs
 62
256
370
-1
 48
1.0
  6
BYLAYER
100
AcDbLine
 10
40.5307999999999709
 20
31.0748000000000388
 30
0.0
 11
40.5307999999999709
 21
33.8749000000000393
 31
0.0
  0
LINE
  5
189
100
AcDbEntity
  8
switchs
 62
256
370
-1
 48
1.0
  6
BYLAYER
100
AcDbLine
 10
40.5307999999999709
 20
33.8749000000000393
 30
0.0
 11
39.6558999999999742
 21
33.8749000000000393
 31
0.0
  0
LINE
  5
18A
100
AcDbEntity
  8
switchs
 62
256
370
-1
 48
1.0
  6
BYLAYER
100
AcDbLine
 10
39.6558999999999742
 20
33.8749000000000393
 30
0.0
 11
39.6558999999999742
 21
37.1050000000000466
 31
0.0
  0
LINE
  5
18B
100
AcDbEntity
  8
switchs
 62
256
370
-1
 48
1.0
  6
BYLAYER
100
AcDbLine
 10
39.6558999999999742
 20
37.1050000000000466
 30
0.0
 11
37.9815999999999718
 21
37.1050000000000466
 31
0.0
  0
LINE
  5
18C
100
AcDbEntity
  8
switchs
 62
256
370
-1
 48
1.0
  6
BYLAYER
100
AcDbLine
 10
37.9815999999999718
 20
37.1050000000000466
 30
0.0
 11
37.9815999999999718
 21
38.0257000000000289
 31
0.0
  0
LINE
  5
18D
100
AcDbEntity
  8
switchs
 62
256
370
-1
 48
1.0
  6
BYLAYER
100
AcDbLine
 10
37.9815999999999718
 20
38.0257000000000289
 30
0.0
 11
34.680999999999969
 21
38.0257000000000289
 31
0.0
  0
LINE
  5
18E
100
AcDbEntity
  8
switchs
 62
256
370
-1
 48
1.0
  6
BYLAYER
100
AcDbLine
 10
34.680999999999969
 20
38.0257000000000289
 30
0.0
 11
34.680999999999969
 21
37.1050000000000466
 31
0.0
  0
LINE
  5
18F
100
AcDbEntity
  8
switchs
 62
256
370
-1
 48
1.0
  6
BYLAYER
100
AcDbLine
 10
34.680999999999969
 20
37.1050000000000466
 30
0.0
 11
33.0052999999999628
 21
37.1050000000000466
 31
0.0
  0
LINE
  5
190
100
AcDbEntity
  8
switchs
 62
256
370
-1
 48
1.0
  6
BYLAYER
100
AcDbLine
 10
33.0052999999999628
 20
37.1050000000000466
 30
0.0
 11
33.0052999999999628
 21
33.8749000000000393
 31
0.0
  0
LINE
  5
191
100
AcDbEntity
  8
switchs
 62
256
370
-1
 48
1.0
  6
BYLAYER
100
AcDbLine
 10
33.0052999999999628
 20
33.8749000000000393
 30
0.0
 11
31.4316999999999602
 21
33.8749000000000393
 31
0.0
  0
LINE
  5
192
100
AcDbEntity
  8
switchs
 62
256
370
-1
 48
1.0
  6
BYLAYER
100
AcDbLine
 10
31.4316999999999602
 20
33.8749000000000393
 30
0.0
 11
31.4316999999999602
 21
34.475700000000046
 31
0.0
  0
LINE
  5
193
100
AcDbEntity
  8
switchs
 62
256
370
-1
 48
1.0
  6
BYLAYER
100
AcDbLine
 10
31.4316999999999602
 20
34.475700000000046
 30
0.0
 11
32.2309999999999803
 21
34.475700000000046
 31
0.0
  0
LINE
  5
194
100
AcDbEntity
  8
switchs
 62
256
370
-1
 48
1.0
  6
BYLAYER
100
AcDbLine
 10
32.2309999999999803
 20
34.475700000000046
 30
0.0
 11
32.2309999999999803
 21
37.5749000000000422
 31
0.0
  0
LINE
  5
195
100
AcDbEntity
  8
switchs
 62
256
370
-1
 48
1.0
  6
BYLAYER
100
AcDbLine
 10
32.2309999999999803
 20
37.5749000000000422
 30
0.0
 11
31.4316999999999602
 21
37.5749000000000422
 31
0.0
  0
LINE
  5
196
100
AcDbEntity
  8
switchs
 62
256
370
-1
 48
1.0
  6
BYLAYER
100
AcDbLine
 10
31.4316999999999602
 20
37.5749000000000422
 30
0.0
 11
31.4316999999999602
 21
38.5754000000000303
 31
0.0
  0
LINE
  5
197
100
AcDbEntity
  8
switchs
 62
256
370
-1
 48
1.0
  6
BYLAYER
100
AcDbLine
 10
31.4316999999999602
 20
38.5754000000000303
 30
0.0
 11
17.4307999999999588
 21
38.5754000000000303
 31
0.0
  0
LINE
  5
198
100
AcDbEntity
  8
switchs
 62
256
370
-1
 48
1.0
  6
BYLAYER
100
AcDbLine
 10
48.3871999999999645
 20
38.5754000000000303
 30
0.0
 11
48.3871999999999645
 21
37.5749000000000422
 31
0.0
  0
LINE
  5
199
100
AcDbEntity
  8
switchs
 62
256
370
-1
 48
1.0
  6
BYLAYER
100
AcDbLine
 10
48.3871999999999645
 20
37.5749000000000422
 30
0.0
 11
47.5863999999999834
 21
37.5749000000000422
 31
0.0
  0
LINE
  5
19A
100
AcDbEntity
  8
switchs
 62
256
370
-1
 48
1.0
  6
BYLAYER
100
AcDbLine
 10
47.5863999999999834
 20
37.5749000000000422
 30
0.0
 11
47.5863999999999834
 21
34.475700000000046
 31
0.0
  0
LINE
  5
19B
100
AcDbEntity
  8
switchs
 62
256
370
-1
 48
1.0
  6
BYLAYER
100
AcDbLine
 10
47.5863999999999834
 20
34.475700000000046
 30
0.0
 11
48.3871999999999645
 21
34.475700000000046
 31
0.0
  0
LINE
  5
19C
100
AcDbEntity
  8
switchs
 62
256
370
-1
 48
1.0
  6
BYLAYER
100
AcDbLine
 10
48.3871999999999645
 20
34.475700000000046
 30
0.0
 11
48.3871999999999645
 21
28.6756000000000313
 31
0.0
  0
LINE
  5
19D
100
AcDbEntity
  8
switchs
 62
256
370
-1
 48
1.0
  6
BYLAYER
100
AcDbLine
 10
48.3871999999999645
 20
28.6756000000000313
 30
0.0
 11
47.5863999999999834
 21
28.6756000000000313
 31
0.0
  0
LINE
  5
19E
100
AcDbEntity
  8
switchs
 62
256
370
-1
 48
1.0
  6
BYLAYER
100
AcDbLine
 10
47.5863999999999834
 20
28.6756000000000313
 30
0.0
 11
47.5863999999999834
 21
25.5750000000000455
 31
0.0
  0
LINE
  5
19F
100
AcDbEntity
  8
switchs
 62
256
370
-1
 48
1.0
  6
BYLAYER
100
AcDbLine
 10
47.5863999999999834
 20
25.5750000000000455
 30
0.0
 11
48.3871999999999645
 21
25.5750000000000455
 31
0.0
  0
LINE
  5
1A0
100
AcDbEntity
  8
switchs
 62
256
370
-1
 48
1.0
  6
BYLAYER
100
AcDbLine
 10
48.3871999999999645
 20
25.5750000000000455
 30
0.0
 11
48.3871999999999645
 21
24.5746000000000322
 31
0.0
  0
LINE
  5
1A1
100
AcDbEntity
  8
switchs
 62
256
370
-1
 48
1.0
  6
BYLAYER
100
AcDbLine
 10
48.3871999999999645
 20
24.5746000000000322
 30
0.0
 11
62.3863999999999663
 21
24.5746000000000322
 31
0.0
  0
LINE
  5
1A2
100
AcDbEntity
  8
switchs
 62
256
370
-1
 48
1.0
  6
BYLAYER
100
AcDbLine
 10
62.3863999999999663
 20
24.5746000000000322
 30
0.0
 11
62.3863999999999663
 21
25.5750000000000455
 31
0.0
  0
LINE
  5
1A3
100
AcDbEntity
  8
switchs
 62
256
370
-1
 48
1.0
  6
BYLAYER
100
AcDbLine
 10
62.3863999999999663
 20
25.5750000000000455
 30
0.0
 11
63.1871999999999758
 21
25.5750000000000455
 31
0.0
  0
LINE
  5
1A4
100
AcDbEntity
  8
switchs
 62
256
370
-1
 48
1.0
  6
BYLAYER
100
AcDbLine
 10
63.1871999999999758
 20
25.5750000000000455
 30
0.0
 11
63.1871999999999758
 21
28.6756000000000313
 31
0.0
  0
LINE
  5
1A5
100
AcDbEntity
  8
switchs
 62
256
370
-1
 48
1.0
  6
BYLAYER
100
AcDbLine
 10
63.1871999999999758
 20
28.6756000000000313
 30
0.0
 11
62.3863999999999663
 21
28.6756000000000313
 31
0.0
  0
LINE
  5
1A6
100
AcDbEntity
  8
switchs
 62
256
370
-1
 48
1.0
  6
BYLAYER
100
AcDbLine
 10
62.3863999999999663
 20
28.6756000000000313
 30
0.0
 11
62.3863999999999663
 21
34.475700000000046
 31
0.0
  0
LINE
  5
1A7
100
AcDbEntity
  8
switchs
 62
256
370
-1
 48
1.0
  6
BYLAYER
100
AcDbLine
 10
62.3863999999999663
 20
34.475700000000046
 30
0.0
 11
63.1871999999999758
 21
34.475700000000046
 31
0.0
  0
LINE
  5
1A8
100
AcDbEntity
  8
switchs
 62
256
370
-1
 48
1.0
  6
BYLAYER
100
AcDbLine
 10
63.1871999999999758
 20
34.475700000000046
 30
0.0
 11
63.1871999999999758
 21
37.5749000000000422
 31
0.0
  0
LINE
  5
1A9
100
AcDbEntity
  8
switchs
 62
256
370
-1
 48
1.0
  6
BYLAYER
100
AcDbLine
 10
63.1871999999999758
 20
37.5749000000000422
 30
0.0
 11
62.3863999999999663
 21
37.5749000000000422
 31
0.0
  0
LINE
  5
1AA
100
AcDbEntity
  8
switchs
 62
256
370
-1
 48
1.0
  6
BYLAYER
100
AcDbLine
 10
62.3863999999999663
 20
37.5749000000000422
 30
0.0
 11
62.3863999999999663
 21
38.5754000000000303
 31
0.0
  0
LINE
  5
1AB
100
AcDbEntity
  8
switchs
 62
256
370
-1
 48
1.0
  6
BYLAYER
100
AcDbLine
 10
62.3863999999999663
 20
38.5754000000000303
 30
0.0
 11
48.3871999999999645
 21
38.5754000000000303
 31
0.0
  0
LINE
  5
1AC
100
AcDbEntity
  8
switchs
 62
256
370
-1
 48
1.0
  6
BYLAYER
100
AcDbLine
 10
67.4371999999999758
 20
38.5754000000000303
 30
0.0
 11
67.4371999999999758
 21
37.5749000000000422
 31
0.0
  0
LINE
  5
1AD
100
AcDbEntity
  8
switchs
 62
256
370
-1
 48
1.0
  6
BYLAYER
100
AcDbLine
 10
67.4371999999999758
 20
37.5749000000000422
 30
0.0
 11
66.6363999999999663
 21
37.5749000000000422
 31
0.0
  0
LINE
  5
1AE
100
AcDbEntity
  8
switchs
 62
256
370
-1
 48
1.0
  6
BYLAYER
100
AcDbLine
 10
66.6363999999999663
 20
37.5749000000000422
 30
0.0
 11
66.6363999999999663
 21
34.475700000000046
 31
0.0
  0
LINE
  5
1AF
100
AcDbEntity
  8
switchs
 62
256
370
-1
 48
1.0
  6
BYLAYER
100
AcDbLine
 10
66.6363999999999663
 20
34.475700000000046
 30
0.0
 11
67.4371999999999758
 21
34.475700000000046
 31
0.0
  0
LINE
  5
1B0
100
AcDbEntity
  8
switchs
 62
256
370
-1
 48
1.0
  6
BYLAYER
100
AcDbLine
 10
67.4371999999999758
 20
34.475700000000046
 30
0.0
 11
67.4371999999999758
 21
28.6756000000000313
 31
0.0
  0
LINE
  5
1B1
100
AcDbEntity
  8
switchs
 62
256
370
-1
 48
1.0
  6
BYLAYER
100
AcDbLine
 10
67.4371999999999758
 20
28.6756000000000313
 30
0.0
 11
66.6363999999999663
 21
28.6756000000000313
 31
0.0
  0
LINE
  5
1B2
100
AcDbEntity
  8
switchs
 62
256
370
-1
 48
1.0
  6
BYLAYER
100
AcDbLine
 10
66.6363999999999663
 20
28.6756000000000313
 30
0.0
 11
66.6363999999999663
 21
25.5750000000000455
 31
0.0
  0
LINE
  5
1B3
100
AcDbEntity
  8
switchs
 62
256
370
-1
 48
1.0
  6
BYLAYER
100
AcDbLine
 10
66.6363999999999663
 20
25.5750000000000455
 30
0.0
 11
67.4371999999999758
 21
25.5750000000000455
 31
0.0
  0
LINE
  5
1B4
100
AcDbEntity
  8
switchs
 62
256
370
-1
 48
1.0
  6
BYLAYER
100
AcDbLine
 10
67.4371999999999758
 20
25.5750000000000455
 30
0.0
 11
67.4371999999999758
 21
24.5746000000000322
 31
0.0
  0
LINE
  5
1B5
100
AcDbEntity
  8
switchs
 62
256
370
-1
 48
1.0
  6
BYLAYER
100
AcDbLine
 10
67.4371999999999758
 20
24.5746000000000322
 30
0.0
 11
81.4363999999999777
 21
24.5746000000000322
 31
0.0
  0
LINE
  5
1B6
100
AcDbEntity
  8
switchs
 62
256
370
-1
 48
1.0
  6
BYLAYER
100
AcDbLine
 10
81.4363999999999777
 20
24.5746000000000322
 30
0.0
 11
81.4363999999999777
 21
25.5750000000000455
 31
0.0
  0
LINE
  5
1B7
100
AcDbEntity
  8
switchs
 62
256
370
-1
 48
1.0
  6
BYLAYER
100
AcDbLine
 10
81.4363999999999777
 20
25.5750000000000455
 30
0.0
 11
82.237199999999973
 21
25.5750000000000455
 31
0.0
  0
LINE
  5
1B8
100
AcDbEntity
  8
switchs
 62
256
370
-1
 48
1.0
  6
BYLAYER
100
AcDbLine
 10
82.237199999999973
 20
25.5750000000000455
 30
0.0
 11
82.237199999999973
 21
28.6756000000000313
 31
0.0
  0
LINE
  5
1B9
100
AcDbEntity
  8
switchs
 62
256
370
-1
 48
1.0
  6
BYLAYER
100
AcDbLine
 10
82.237199999999973
 20
28.6756000000000313
 30
0.0
 11
81.4363999999999777
 21
28.6756000000000313
 31
0.0
  0
LINE
  5
1BA
100
AcDbEntity
  8
switchs
 62
256
370
-1
 48
1.0
  6
BYLAYER
100
AcDbLine
 10
81.4363999999999777
 20
28.6756000000000313
 30
0.0
 11
81.4363999999999777
 21
34.475700000000046
 31
0.0
  0
LINE
  5
1BB
100
AcDbEntity
  8
switchs
 62
256
370
-1
 48
1.0
  6
BYLAYER
100
AcDbLine
 10
81.4363999999999777
 20
34.475700000000046
 30
0.0
 11
82.237199999999973
 21
34.475700000000046
 31
0.0
  0
LINE
  5
1BC
100
AcDbEntity
  8
switchs
 62
256
370
-1
 48
1.0
  6
BYLAYER
100
AcDbLine
 10
82.237199999999973
 20
34.475700000000046
 30
0.0
 11
82.237199999999973
 21
37.5749000000000422
 31
0.0
  0
LINE
  5
1BD
100
AcDbEntity
  8
switchs
 62
256
370
-1
 48
1.0
  6
BYLAYER
100
AcDbLine
 10
82.237199999999973
 20
37.5749000000000422
 30
0.0
 11
81.4363999999999777
 21
37.5749000000000422
 31
0.0
  0
LINE
  5
1BE
100
AcDbEntity
  8
switchs
 62
256
370
-1
 48
1.0
  6
BYLAYER
100
AcDbLine
 10
81.4363999999999777
 20
37.5749000000000422
 30
0.0
 11
81.4363999999999777
 21
38.5754000000000303
 31
0.0
  0
LINE
  5
1BF
100
AcDbEntity
  8
switchs
 62
256
370
-1
 48
1.0
  6
BYLAYER
100
AcDbLine
 10
81.4363999999999777
 20
38.5754000000000303
 30
0.0
 11
67.4371999999999758
 21
38.5754000000000303
 31
0.0
  0
LINE
  5
1C0
100
AcDbEntity
  8
switchs
 62
256
370
-1
 48
1.0
  6
BYLAYER
100
AcDbLine
 10
86.487199999999973
 20
38.5754000000000303
 30
0.0
 11
86.487199999999973
 21
37.5749000000000422
 31
0.0
  0
LINE
  5
1C1
100
AcDbEntity
  8
switchs
 62
256
370
-1
 48
1.0
  6
BYLAYER
100
AcDbLine
 10
86.487199999999973
 20
37.5749000000000422
 30
0.0
 11
85.6863999999999777
 21
37.5749000000000422
 31
0.0
  0
LINE
  5
1C2
100
AcDbEntity
  8
switchs
 62
256
370
-1
 48
1.0
  6
BYLAYER
100
AcDbLine
 10
85.6863999999999777
 20
37.5749000000000422
 30
0.0
 11
85.6863999999999777
 21
34.475700000000046
 31
0.0
  0
LINE
  5
1C3
100
AcDbEntity
  8
switchs
 62
256
370
-1
 48
1.0
  6
BYLAYER
100
AcDbLine
 10
85.6863999999999777
 20
34.475700000000046
 30
0.0
 11
86.487199999999973
 21
34.475700000000046
 31
0.0
  0
LINE
  5
1C4
100
AcDbEntity
  8
switchs
 62
256
370
-1
 48
1.0
  6
BYLAYER
100
AcDbLine
 10
86.487199999999973
 20
34.475700000000046
 30
0.0
 11
86.487199999999973
 21
28.6756000000000313
 31
0.0
  0
LINE
  5
1C5
100
AcDbEntity
  8
switchs
 62
256
370
-1
 48
1.0
  6
BYLAYER
100
AcDbLine
 10
86.487199999999973
 20
28.6756000000000313
 30
0.0
 11
85.6863999999999777
 21
28.6756000000000313
 31
0.0
  0
LINE
  5
1C6
100
AcDbEntity
  8
switchs
 62
256
370
-1
 48
1.0
  6
BYLAYER
100
AcDbLine
 10
85.6863999999999777
 20
28.6756000000000313
 30
0.0
 11
85.6863999999999777
 21
25.5750000000000455
 31
0.0
  0
LINE
  5
1C7
100
AcDbEntity
  8
switchs
 62
256
370
-1
 48
1.0
  6
BYLAYER
100
AcDbLine
 10
85.6863999999999777
 20
25.5750000000000455
 30
0.0
 11
86.487199999999973
 21
25.5750000000000455
 31
0.0
  0
LINE
  5
1C8
100
AcDbEntity
  8
switchs
 62
256
370
-1
 48
1.0
  6
BYLAYER
100
AcDbLine
 10
86.487199999999973
 20
25.5750000000000455
 30
0.0
 11
86.487199999999973
 21
24.5746000000000322
 31
0.0
  0
LINE
  5
1C9
100
AcDbEntity
  8
switchs
 62
256
370
-1
 48
1.0
  6
BYLAYER
100
AcDbLine
 10
86.487199999999973
 20
24.5746000000000322
 30
0.0
 11
100.4862999999999715
 21
24.5746000000000322
 31
0.0
  0
LINE
  5
1CA
100
AcDbEntity
  8
switchs
 62
256
370
-1
 48
1.0
  6
BYLAYER
100
AcDbLine
 10
100.4862999999999715
 20
24.5746000000000322
 30
0.0
 11
100.4862999999999715
 21
25.5750000000000455
 31
0.0
  0
LINE
  5
1CB
100
AcDbEntity
  8
switchs
 62
256
370
-1
 48
1.0
  6
BYLAYER
100
AcDbLine
 10
100.4862999999999715
 20
25.5750000000000455
 30
0.0
 11
101.2872999999999735
 21
25.5750000000000455
 31
0.0
  0
LINE
  5
1CC
100
AcDbEntity
  8
switchs
 62
256
370
-1
 48
1.0
  6
BYLAYER
100
AcDbLine
 10
101.2872999999999735
 20
25.5750000000000455
 30
0.0
 11
101.2872999999999735
 21
28.6756000000000313
 31
0.0
  0
LINE
  5
1CD
100
AcDbEntity
  8
switchs
 62
256
370
-1
 48
1.0
  6
BYLAYER
100
AcDbLine
 10
101.2872999999999735
 20
28.6756000000000313
 30
0.0
 11
100.4862999999999715
 21
28.6756000000000313
 31
0.0
  0
LINE
  5
1CE
100
AcDbEntity
  8
switchs
 62
256
370
-1
 48
1.0
  6
BYLAYER
100
AcDbLine
 10
100.4862999999999715
 20
28.6756000000000313
 30
0.0
 11
100.4862999999999715
 21
34.475700000000046
 31
0.0
  0
LINE
  5
1CF
100
AcDbEntity
  8
switchs
 62
256
370
-1
 48
1.0
  6
BYLAYER
100
AcDbLine
 10
100.4862999999999715
 20
34.475700000000046
 30
0.0
 11
101.2872999999999735
 21
34.475700000000046
 31
0.0
  0
LINE
  5
1D0
100
AcDbEntity
  8
switchs
 62
256
370
-1
 48
1.0
  6
BYLAYER
100
AcDbLine
 10
101.2872999999999735
 20
34.475700000000046
 30
0.0
 11
101.2872999999999735
 21
37.5749000000000422
 31
0.0
  0
LINE
  5
1D1
100
AcDbEntity
  8
switchs
 62
256
370
-1
 48
1.0
  6
BYLAYER
100
AcDbLine
 10
101.2872999999999735
 20
37.5749000000000422
 30
0.0
 11
100.4862999999999715
 21
37.5749000000000422
 31
0.0
  0
LINE
  5
1D2
100
AcDbEntity
  8
switchs
 62
256
370
-1
 48
1.0
  6
BYLAYER
100
AcDbLine
 10
100.4862999999999715
 20
37.5749000000000422
 30
0.0
 11
100.4862999999999715
 21
38.5754000000000303
 31
0.0
  0
LINE
  5
1D3
100
AcDbEntity
  8
switchs
 62
256
370
-1
 48
1.0
  6
BYLAYER
100
AcDbLine
 10
100.4862999999999715
 20
38.5754000000000303
 30
0.0
 11
86.487199999999973
 21
38.5754000000000303
 31
0.0
  0
LINE
  5
1D4
100
AcDbEntity
  8
switchs
 62
256
370
-1
 48
1.0
  6
BYLAYER
100
AcDbLine
 10
105.5372999999999735
 20
38.5754000000000303
 30
0.0
 11
105.5372999999999735
 21
37.5749000000000422
 31
0.0
  0
LINE
  5
1D5
100
AcDbEntity
  8
switchs
 62
256
370
-1
 48
1.0
  6
BYLAYER
100
AcDbLine
 10
105.5372999999999735
 20
37.5749000000000422
 30
0.0
 11
104.7362999999999715
 21
37.5749000000000422
 31
0.0
  0
LINE
  5
1D6
100
AcDbEntity
  8
switchs
 62
256
370
-1
 48
1.0
  6
BYLAYER
100
AcDbLine
 10
104.7362999999999715
 20
37.5749000000000422
 30
0.0
 11
104.7362999999999715
 21
34.475700000000046
 31
0.0
  0
LINE
  5
1D7
100
AcDbEntity
  8
switchs
 62
256
370
-1
 48
1.0
  6
BYLAYER
100
AcDbLine
 10
104.7362999999999715
 20
34.475700000000046
 30
0.0
 11
105.5372999999999735
 21
34.475700000000046
 31
0.0
  0
LINE
  5
1D8
100
AcDbEntity
  8
switchs
 62
256
370
-1
 48
1.0
  6
BYLAYER
100
AcDbLine
 10
105.5372999999999735
 20
34.475700000000046
 30
0.0
 11
105.5372999999999735
 21
28.6756000000000313
 31
0.0
  0
LINE
  5
1D9
100
AcDbEntity
  8
switchs
 62
256
370
-1
 48
1.0
  6
BYLAYER
100
AcDbLine
 10
105.5372999999999735
 20
28.6756000000000313
 30
0.0
 11
104.7362999999999715
 21
28.6756000000000313
 31
0.0
  0
LINE
  5
1DA
100
AcDbEntity
  8
switchs
 62
256
370
-1
 48
1.0
  6
BYLAYER
100
AcDbLine
 10
104.7362999999999715
 20
28.6756000000000313
 30
0.0
 11
104.7362999999999715
 21
25.5750000000000455
 31
0.0
  0
LINE
  5
1DB
100
AcDbEntity
  8
switchs
 62
256
370
-1
 48
1.0
  6
BYLAYER
100
AcDbLine
 10
104.7362999999999715
 20
25.5750000000000455
 30
0.0
 11
105.5372999999999735
 21
25.5750000000000455
 31
0.0
  0
LINE
  5
1DC
100
AcDbEntity
  8
switchs
 62
256
370
-1
 48
1.0
  6
BYLAYER
100
AcDbLine
 10
105.5372999999999735
 20
25.5750000000000455
 30
0.0
 11
105.5372999999999735
 21
24.5746000000000322
 31
0.0
  0
LINE
  5
1DD
100
AcDbEntity
  8
switchs
 62
256
370
-1
 48
1.0
  6
BYLAYER
100
AcDbLine
 10
105.5372999999999735
 20
24.5746000000000322
 30
0.0
 11
119.5362999999999687
 21
24.5746000000000322
 31
0.0
  0
LINE
  5
1DE
100
AcDbEntity
  8
switchs
 62
256
370
-1
 48
1.0
  6
BYLAYER
100
AcDbLine
 10
119.5362999999999687
 20
24.5746000000000322
 30
0.0
 11
119.5362999999999687
 21
25.5750000000000455
 31
0.0
  0
LINE
  5
1DF
100
AcDbEntity
  8
switchs
 62
256
370
-1
 48
1.0
  6
BYLAYER
100
AcDbLine
 10
119.5362999999999687
 20
25.5750000000000455
 30
0.0
 11
120.3362999999999801
 21
25.5750000000000455
 31
0.0
  0
LINE
  5
1E0
100
AcDbEntity
  8
switchs
 62
256
370
-1
 48
1.0
  6
BYLAYER
100
AcDbLine
 10
120.3362999999999801
 20
25.5750000000000455
 30
0.0
 11
120.3362999999999801
 21
28.6756000000000313
 31
0.0
  0
LINE
  5
1E1
100
AcDbEntity
  8
switchs
 62
256
370
-1
 48
1.0
  6
BYLAYER
100
AcDbLine
 10
120.3362999999999801
 20
28.6756000000000313
 30
0.0
 11
119.5362999999999687
 21
28.6756000000000313
 31
0.0
  0
LINE
  5
1E2
100
AcDbEntity
  8
switchs
 62
256
370
-1
 48
1.0
  6
BYLAYER
100
AcDbLine
 10
119.5362999999999687
 20
28.6756000000000313
 30
0.0
 11
119.5362999999999687
 21
34.475700000000046
 31
0.0
  0
LINE
  5
1E3
100
AcDbEntity
  8
switchs
 62
256
370
-1
 48
1.0
  6
BYLAYER
100
AcDbLine
 10
119.5362999999999687
 20
34.475700000000046
 30
0.0
 11
120.3362999999999801
 21
34.475700000000046
 31
0.0
  0
LINE
  5
1E4
100
AcDbEntity
  8
switchs
 62
256
370
-1
 48
1.0
  6
BYLAYER
100
AcDbLine
 10
120.3362999999999801
 20
34.475700000000046
 30
0.0
 11
120.3362999999999801
 21
37.5749000000000422
 31
0.0
  0
LINE
  5
1E5
100
AcDbEntity
  8
switchs
 62
256
370
-1
 48
1.0
  6
BYLAYER
100
AcDbLine
 10
120.3362999999999801
 20
37.5749000000000422
 30
0.0
 11
119.5362999999999687
 21
37.5749000000000422
 31
0.0
  0
LINE
  5
1E6
100
AcDbEntity
  8
switchs
 62
256
370
-1
 48
1.0
  6
BYLAYER
100
AcDbLine
 10
119.5362999999999687
 20
37.5749000000000422
 30
0.0
 11
119.5362999999999687
 21
38.5754000000000303
 31
0.0
  0
LINE
  5
1E7
100
AcDbEntity
  8
switchs
 62
256
370
-1
 48
1.0
  6
BYLAYER
100
AcDbLine
 10
119.5362999999999687
 20
38.5754000000000303
 30
0.0
 11
105.5372999999999735
 21
38.5754000000000303
 31
0.0
  0
LINE
  5
1E8
100
AcDbEntity
  8
switchs
 62
256
370
-1
 48
1.0
  6
BYLAYER
100
AcDbLine
 10
124.5872999999999564
 20
38.5754000000000303
 30
0.0
 11
124.5872999999999564
 21
37.5749000000000422
 31
0.0
  0
LINE
  5
1E9
100
AcDbEntity
  8
switchs
 62
256
370
-1
 48
1.0
  6
BYLAYER
100
AcDbLine
 10
124.5872999999999564
 20
37.5749000000000422
 30
0.0
 11
123.7862999999999687
 21
37.5749000000000422
 31
0.0
  0
LINE
  5
1EA
100
AcDbEntity
  8
switchs
 62
256
370
-1
 48
1.0
  6
BYLAYER
100
AcDbLine
 10
123.7862999999999687
 20
37.5749000000000422
 30
0.0
 11
123.7862999999999687
 21
34.475700000000046
 31
0.0
  0
LINE
  5
1EB
100
AcDbEntity
  8
switchs
 62
256
370
-1
 48
1.0
  6
BYLAYER
100
AcDbLine
 10
123.7862999999999687
 20
34.475700000000046
 30
0.0
 11
124.5872999999999564
 21
34.475700000000046
 31
0.0
  0
LINE
  5
1EC
100
AcDbEntity
  8
switchs
 62
256
370
-1
 48
1.0
  6
BYLAYER
100
AcDbLine
 10
124.5872999999999564
 20
34.475700000000046
 30
0.0
 11
124.5872999999999564
 21
28.6756000000000313
 31
0.0
  0
LINE
  5
1ED
100
AcDbEntity
  8
switchs
 62
256
370
-1
 48
1.0
  6
BYLAYER
100
AcDbLine
 10
124.5872999999999564
 20
28.6756000000000313
 30
0.0
 11
123.7862999999999687
 21
28.6756000000000313
 31
0.0
  0
LINE
  5
1EE
100
AcDbEntity
  8
switchs
 62
256
370
-1
 48
1.0
  6
BYLAYER
100
AcDbLine
 10
123.7862999999999687
 20
28.6756000000000313
 30
0.0
 11
123.7862999999999687
 21
25.5750000000000455
 31
0.0
  0
LINE
  5
1EF
100
AcDbEntity
  8
switchs
 62
256
370
-1
 48
1.0
  6
BYLAYER
100
AcDbLine
 10
123.7862999999999687
 20
25.5750000000000455
 30
0.0
 11
124.5872999999999564
 21
25.5750000000000455
 31
0.0
  0
LINE
  5
1F0
100
AcDbEntity
  8
switchs
 62
256
370
-1
 48
1.0
  6
BYLAYER
100
AcDbLine
 10
124.5872999999999564
 20
25.5750000000000455
 30
0.0
 11
124.5872999999999564
 21
24.5746000000000322
 31
0.0
  0
LINE
  5
1F1
100
AcDbEntity
  8
switchs
 62
256
370
-1
 48
1.0
  6
BYLAYER
100
AcDbLine
 10
124.5872999999999564
 20
24.5746000000000322
 30
0.0
 11
138.5862999999999658
 21
24.5746000000000322
 31
0.0
  0
LINE
  5
1F2
100
AcDbEntity
  8
switchs
 62
256
370
-1
 48
1.0
  6
BYLAYER
100
AcDbLine
 10
138.5862999999999658
 20
24.5746000000000322
 30
0.0
 11
138.5862999999999658
 21
25.5750000000000455
 31
0.0
  0
LINE
  5
1F3
100
AcDbEntity
  8
switchs
 62
256
370
-1
 48
1.0
  6
BYLAYER
100
AcDbLine
 10
138.5862999999999658
 20
25.5750000000000455
 30
0.0
 11
139.3872999999999536
 21
25.5750000000000455
 31
0.0
  0
LINE
  5
1F4
100
AcDbEntity
  8
switchs
 62
256
370
-1
 48
1.0
  6
BYLAYER
100
AcDbLine
 10
139.3872999999999536
 20
25.5750000000000455
 30
0.0
 11
139.3872999999999536
 21
28.6756000000000313
 31
0.0
  0
LINE
  5
1F5
100
AcDbEntity
  8
switchs
 62
256
370
-1
 48
1.0
  6
BYLAYER
100
AcDbLine
 10
139.3872999999999536
 20
28.6756000000000313
 30
0.0
 11
138.5862999999999658
 21
28.6756000000000313
 31
0.0
  0
LINE
  5
1F6
100
AcDbEntity
  8
switchs
 62
256
370
-1
 48
1.0
  6
BYLAYER
100
AcDbLine
 10
138.5862999999999658
 20
28.6756000000000313
 30
0.0
 11
138.5862999999999658
 21
34.475700000000046
 31
0.0
  0
LINE
  5
1F7
100
AcDbEntity
  8
switchs
 62
256
370
-1
 48
1.0
  6
BYLAYER
100
AcDbLine
 10
138.5862999999999658
 20
34.475700000000046
 30
0.0
 11
139.3872999999999536
 21
34.475700000000046
 31
0.0
  0
LINE
  5
1F8
100
AcDbEntity
  8
switchs
 62
256
370
-1
 48
1.0
  6
BYLAYER
100
AcDbLine
 10
139.3872999999999536
 20
34.475700000000046
 30
0.0
 11
139.3872999999999536
 21
37.5749000000000422
 31
0.0
  0
LINE
  5
1F9
100
AcDbEntity
  8
switchs
 62
256
370
-1
 48
1.0
  6
BYLAYER
100
AcDbLine
 10
139.3872999999999536
 20
37.5749000000000422
 30
0.0
 11
138.5862999999999658
 21
37.5749000000000422
 31
0.0
  0
LINE
  5
1FA
100
AcDbEntity
  8
switchs
 62
256
370
-1
 48
1.0
  6
BYLAYER
100
AcDbLine
 10
138.5862999999999658
 20
37.5749000000000422
 30
0.0
 11
138.5862999999999658
 21
38.5754000000000303
 31
0.0
  0
LINE
  5
1FB
100
AcDbEntity
  8
switchs
 62
256
370
-1
 48
1.0
  6
BYLAYER
100
AcDbLine
 10
138.5862999999999658
 20
38.5754000000000303
 30
0.0
 11
124.5872999999999564
 21
38.5754000000000303
 31
0.0
  0
LINE
  5
1FC
100
AcDbEntity
  8
switchs
 62
256
370
-1
 48
1.0
  6
BYLAYER
100
AcDbLine
 10
143.6372999999999536
 20
38.5754000000000303
 30
0.0
 11
143.6372999999999536
 21
37.5749000000000422
 31
0.0
  0
LINE
  5
1FD
100
AcDbEntity
  8
switchs
 62
256
370
-1
 48
1.0
  6
BYLAYER
100
AcDbLine
 10
143.6372999999999536
 20
37.5749000000000422
 30
0.0
 11
142.8362999999999658
 21
37.5749000000000422
 31
0.0
  0
LINE
  5
1FE
100
AcDbEntity
  8
switchs
 62
256
370
-1
 48
1.0
  6
BYLAYER
100
AcDbLine
 10
142.8362999999999658
 20
37.5749000000000422
 30
0.0
 11
142.8362999999999658
 21
34.475700000000046
 31
0.0
  0
LINE
  5
1FF
100
AcDbEntity
  8
switchs
 62
256
370
-1
 48
1.0
  6
BYLAYER
100
AcDbLine
 10
142.8362999999999658
 20
34.475700000000046
 30
0.0
 11
143.6372999999999536
 21
34.475700000000046
 31
0.0
  0
LINE
  5
200
100
AcDbEntity
  8
switchs
 62
256
370
-1
 48
1.0
  6
BYLAYER
100
AcDbLine
 10
143.6372999999999536
 20
34.475700000000046
 30
0.0
 11
143.6372999999999536
 21
28.6756000000000313
 31
0.0
  0
LINE
  5
201
100
AcDbEntity
  8
switchs
 62
256
370
-1
 48
1.0
  6
BYLAYER
100
AcDbLine
 10
143.6372999999999536
 20
28.6756000000000313
 30
0.0
 11
142.8362999999999658
 21
28.6756000000000313
 31
0.0
  0
LINE
  5
202
100
AcDbEntity
  8
switchs
 62
256
370
-1
 48
1.0
  6
BYLAYER
100
AcDbLine
 10
142.8362999999999658
 20
28.6756000000000313
 30
0.0
 11
142.8362999999999658
 21
25.5750000000000455
 31
0.0
  0
LINE
  5
203
100
AcDbEntity
  8
switchs
 62
256
370
-1
 48
1.0
  6
BYLAYER
100
AcDbLine
 10
142.8362999999999658
 20
25.5750000000000455
 30
0.0
 11
143.6372999999999536
 21
25.5750000000000455
 31
0.0
  0
LINE
  5
204
100
AcDbEntity
  8
switchs
 62
256
370
-1
 48
1.0
  6
BYLAYER
100
AcDbLine
 10
143.6372999999999536
 20
25.5750000000000455
 30
0.0
 11
143.6372999999999536
 21
24.5746000000000322
 31
0.0
  0
LINE
  5
205
100
AcDbEntity
  8
switchs
 62
256
370
-1
 48
1.0
  6
BYLAYER
100
AcDbLine
 10
143.6372999999999536
 20
24.5746000000000322
 30
0.0
 11
157.6362999999999488
 21
24.5746000000000322
 31
0.0
  0
LINE
  5
206
100
AcDbEntity
  8
switchs
 62
256
370
-1
 48
1.0
  6
BYLAYER
100
AcDbLine
 10
157.6362999999999488
 20
24.5746000000000322
 30
0.0
 11
157.6362999999999488
 21
25.5750000000000455
 31
0.0
  0
LINE
  5
207
100
AcDbEntity
  8
switchs
 62
256
370
-1
 48
1.0
  6
BYLAYER
100
AcDbLine
 10
157.6362999999999488
 20
25.5750000000000455
 30
0.0
 11
158.4372999999999649
 21
25.5750000000000455
 31
0.0
  0
LINE
  5
208
100
AcDbEntity
  8
switchs
 62
256
370
-1
 48
1.0
  6
BYLAYER
100
AcDbLine
 10
158.4372999999999649
 20
25.5750000000000455
 30
0.0
 11
158.4372999999999649
 21
28.6756000000000313
 31
0.0
  0
LINE
  5
209
100
AcDbEntity
  8
switchs
 62
256
370
-1
 48
1.0
  6
BYLAYER
100
AcDbLine
 10
158.4372999999999649
 20
28.6756000000000313
 30
0.0
 11
157.6362999999999488
 21
28.6756000000000313
 31
0.0
  0
LINE
  5
20A
100
AcDbEntity
  8
switchs
 62
256
370
-1
 48
1.0
  6
BYLAYER
100
AcDbLine
 10
157.6362999999999488
 20
28.6756000000000313
 30
0.0
 11
157.6362999999999488
 21
34.475700000000046
 31
0.0
  0
LINE
  5
20B
100
AcDbEntity
  8
switchs
 62
256
370
-1
 48
1.0
  6
BYLAYER
100
AcDbLine
 10
157.6362999999999488
 20
34.475700000000046
 30
0.0
 11
158.4372999999999649
 21
34.475700000000046
 31
0.0
  0
LINE
  5
20C
100
AcDbEntity
  8
switchs
 62
256
370
-1
 48
1.0
  6
BYLAYER
100
AcDbLine
 10
158.4372999999999649
 20
34.475700000000046
 30
0.0
 11
158.4372999999999649
 21
37.5749000000000422
 31
0.0
  0
LINE
  5
20D
100
AcDbEntity
  8
switchs
 62
256
370
-1
 48
1.0
  6
BYLAYER
100
AcDbLine
 10
158.4372999999999649
 20
37.5749000000000422
 30
0.0
 11
157.6362999999999488
 21
37.5749000000000422
 31
0.0
  0
LINE
  5
20E
100
AcDbEntity
  8
switchs
 62
256
370
-1
 48
1.0
  6
BYLAYER
100
AcDbLine
 10
157.6362999999999488
 20
37.5749000000000422
 30
0.0
 11
157.6362999999999488
 21
38.5754000000000303
 31
0.0
  0
LINE
  5
20F
100
AcDbEntity
  8
switchs
 62
256
370
-1
 48
1.0
  6
BYLAYER
100
AcDbLine
 10
157.6362999999999488
 20
38.5754000000000303
 30
0.0
 11
143.6372999999999536
 21
38.5754000000000303
 31
0.0
  0
LINE
  5
210
100
AcDbEntity
  8
switchs
 62
256
370
-1
 48
1.0
  6
BYLAYER
100
AcDbLine
 10
162.6872999999999649
 20
38.5754000000000303
 30
0.0
 11
162.6872999999999649
 21
37.5749000000000422
 31
0.0
  0
LINE
  5
211
100
AcDbEntity
  8
switchs
 62
256
370
-1
 48
1.0
  6
BYLAYER
100
AcDbLine
 10
162.6872999999999649
 20
37.5749000000000422
 30
0.0
 11
161.8862999999999488
 21
37.5749000000000422
 31
0.0
  0
LINE
  5
212
100
AcDbEntity
  8
switchs
 62
256
370
-1
 48
1.0
  6
BYLAYER
100
AcDbLine
 10
161.8862999999999488
 20
37.5749000000000422
 30
0.0
 11
161.8862999999999488
 21
34.475700000000046
 31
0.0
  0
LINE
  5
213
100
AcDbEntity
  8
switchs
 62
256
370
-1
 48
1.0
  6
BYLAYER
100
AcDbLine
 10
161.8862999999999488
 20
34.475700000000046
 30
0.0
 11
162.6872999999999649
 21
34.475700000000046
 31
0.0
  0
LINE
  5
214
100
AcDbEntity
  8
switchs
 62
256
370
-1
 48
1.0
  6
BYLAYER
100
AcDbLine
 10
162.6872999999999649
 20
34.475700000000046
 30
0.0
 11
162.6872999999999649
 21
28.6756000000000313
 31
0.0
  0
LINE
  5
215
100
AcDbEntity
  8
switchs
 62
256
370
-1
 48
1.0
  6
BYLAYER
100
AcDbLine
 10
162.6872999999999649
 20
28.6756000000000313
 30
0.0
 11
161.8862999999999488
 21
28.6756000000000313
 31
0.0
  0
LINE
  5
216
100
AcDbEntity
  8
switchs
 62
256
370
-1
 48
1.0
  6
BYLAYER
100
AcDbLine
 10
161.8862999999999488
 20
28.6756000000000313
 30
0.0
 11
161.8862999999999488
 21
25.5750000000000455
 31
0.0
  0
LINE
  5
217
100
AcDbEntity
  8
switchs
 62
256
370
-1
 48
1.0
  6
BYLAYER
100
AcDbLine
 10
161.8862999999999488
 20
25.5750000000000455
 30
0.0
 11
162.6872999999999649
 21
25.5750000000000455
 31
0.0
  0
LINE
  5
218
100
AcDbEntity
  8
switchs
 62
256
370
-1
 48
1.0
  6
BYLAYER
100
AcDbLine
 10
162.6872999999999649
 20
25.5750000000000455
 30
0.0
 11
162.6872999999999649
 21
24.5746000000000322
 31
0.0
  0
LINE
  5
219
100
AcDbEntity
  8
switchs
 62
256
370
-1
 48
1.0
  6
BYLAYER
100
AcDbLine
 10
162.6872999999999649
 20
24.5746000000000322
 30
0.0
 11
176.6862999999999602
 21
24.5746000000000322
 31
0.0
  0
LINE
  5
21A
100
AcDbEntity
  8
switchs
 62
256
370
-1
 48
1.0
  6
BYLAYER
100
AcDbLine
 10
176.6862999999999602
 20
24.5746000000000322
 30
0.0
 11
176.6862999999999602
 21
25.5750000000000455
 31
0.0
  0
LINE
  5
21B
100
AcDbEntity
  8
switchs
 62
256
370
-1
 48
1.0
  6
BYLAYER
100
AcDbLine
 10
176.6862999999999602
 20
25.5750000000000455
 30
0.0
 11
177.4872999999999479
 21
25.5750000000000455
 31
0.0
  0
LINE
  5
21C
100
AcDbEntity
  8
switchs
 62
256
370
-1
 48
1.0
  6
BYLAYER
100
AcDbLine
 10
177.4872999999999479
 20
25.5750000000000455
 30
0.0
 11
177.4872999999999479
 21
28.6756000000000313
 31
0.0
  0
LINE
  5
21D
100
AcDbEntity
  8
switchs
 62
256
370
-1
 48
1.0
  6
BYLAYER
100
AcDbLine
 10
177.4872999999999479
 20
28.6756000000000313
 30
0.0
 11
176.6862999999999602
 21
28.6756000000000313
 31
0.0
  0
LINE
  5
21E
100
AcDbEntity
  8
switchs
 62
256
370
-1
 48
1.0
  6
BYLAYER
100
AcDbLine
 10
176.6862999999999602
 20
28.6756000000000313
 30
0.0
 11
176.6862999999999602
 21
34.475700000000046
 31
0.0
  0
LINE
  5
21F
100
AcDbEntity
  8
switchs
 62
256
370
-1
 48
1.0
  6
BYLAYER
100
AcDbLine
 10
176.6862999999999602
 20
34.475700000000046
 30
0.0
 11
177.4872999999999479
 21
34.475700000000046
 31
0.0
  0
LINE
  5
220
100
AcDbEntity
  8
switchs
 62
256
370
-1
 48
1.0
  6
BYLAYER
100
AcDbLine
 10
177.4872999999999479
 20
34.475700000000046
 30
0.0
 11
177.4872999999999479
 21
37.5749000000000422
 31
0.0
  0
LINE
  5
221
100
AcDbEntity
  8
switchs
 62
256
370
-1
 48
1.0
  6
BYLAYER
100
AcDbLine
 10
177.4872999999999479
 20
37.5749000000000422
 30
0.0
 11
176.6862999999999602
 21
37.5749000000000422
 31
0.0
  0
LINE
  5
222
100
AcDbEntity
  8
switchs
 62
256
370
-1
 48
1.0
  6
BYLAYER
100
AcDbLine
 10
176.6862999999999602
 20
37.5749000000000422
 30
0.0
 11
176.6862999999999602
 21
38.5754000000000303
 31
0.0
  0
LINE
  5
223
100
AcDbEntity
  8
switchs
 62
256
370
-1
 48
1.0
  6
BYLAYER
100
AcDbLine
 10
176.6862999999999602
 20
38.5754000000000303
 30
0.0
 11
162.6872999999999649
 21
38.5754000000000303
 31
0.0
  0
LINE
  5
224
100
AcDbEntity
  8
switchs
 62
256
370
-1
 48
1.0
  6
BYLAYER
100
AcDbLine
 10
181.7372999999999479
 20
38.5754000000000303
 30
0.0
 11
181.7372999999999479
 21
37.5749000000000422
 31
0.0
  0
LINE
  5
225
100
AcDbEntity
  8
switchs
 62
256
370
-1
 48
1.0
  6
BYLAYER
100
AcDbLine
 10
181.7372999999999479
 20
37.5749000000000422
 30
0.0
 11
180.9362999999999602
 21
37.5749000000000422
 31
0.0
  0
LINE
  5
226
100
AcDbEntity
  8
switchs
 62
256
370
-1
 48
1.0
  6
BYLAYER
100
AcDbLine
 10
180.9362999999999602
 20
37.5749000000000422
 30
0.0
 11
180.9362999999999602
 21
34.475700000000046
 31
0.0
  0
LINE
  5
227
100
AcDbEntity
  8
switchs
 62
256
370
-1
 48
1.0
  6
BYLAYER
100
AcDbLine
 10
180.9362999999999602
 20
34.475700000000046
 30
0.0
 11
181.7372999999999479
 21
34.475700000000046
 31
0.0
  0
LINE
  5
228
100
AcDbEntity
  8
switchs
 62
256
370
-1
 48
1.0
  6
BYLAYER
100
AcDbLine
 10
181.7372999999999479
 20
34.475700000000046
 30
0.0
 11
181.7372999999999479
 21
28.6756000000000313
 31
0.0
  0
LINE
  5
229
100
AcDbEntity
  8
switchs
 62
256
370
-1
 48
1.0
  6
BYLAYER
100
AcDbLine
 10
181.7372999999999479
 20
28.6756000000000313
 30
0.0
 11
180.9362999999999602
 21
28.6756000000000313
 31
0.0
  0
LINE
  5
22A
100
AcDbEntity
  8
switchs
 62
256
370
-1
 48
1.0
  6
BYLAYER
100
AcDbLine
 10
180.9362999999999602
 20
28.6756000000000313
 30
0.0
 11
180.9362999999999602
 21
25.5750000000000455
 31
0.0
  0
LINE
  5
22B
100
AcDbEntity
  8
switchs
 62
256
370
-1
 48
1.0
  6
BYLAYER
100
AcDbLine
 10
180.9362999999999602
 20
25.5750000000000455
 30
0.0
 11
181.7372999999999479
 21
25.5750000000000455
 31
0.0
  0
LINE
  5
22C
100
AcDbEntity
  8
switchs
 62
256
370
-1
 48
1.0
  6
BYLAYER
100
AcDbLine
 10
181.7372999999999479
 20
25.5750000000000455
 30
0.0
 11
181.7372999999999479
 21
24.5746000000000322
 31
0.0
  0
LINE
  5
22D
100
AcDbEntity
  8
switchs
 62
256
370
-1
 48
1.0
  6
BYLAYER
100
AcDbLine
 10
181.7372999999999479
 20
24.5746000000000322
 30
0.0
 11
195.7362999999999715
 21
24.5746000000000322
 31
0.0
  0
LINE
  5
22E
100
AcDbEntity
  8
switchs
 62
256
370
-1
 48
1.0
  6
BYLAYER
100
AcDbLine
 10
195.7362999999999715
 20
24.5746000000000322
 30
0.0
 11
195.7362999999999715
 21
25.5750000000000455
 31
0.0
  0
LINE
  5
22F
100
AcDbEntity
  8
switchs
 62
256
370
-1
 48
1.0
  6
BYLAYER
100
AcDbLine
 10
195.7362999999999715
 20
25.5750000000000455
 30
0.0
 11
196.5372999999999593
 21
25.5750000000000455
 31
0.0
  0
LINE
  5
230
100
AcDbEntity
  8
switchs
 62
256
370
-1
 48
1.0
  6
BYLAYER
100
AcDbLine
 10
196.5372999999999593
 20
25.5750000000000455
 30
0.0
 11
196.5372999999999593
 21
28.6756000000000313
 31
0.0
  0
LINE
  5
231
100
AcDbEntity
  8
switchs
 62
256
370
-1
 48
1.0
  6
BYLAYER
100
AcDbLine
 10
196.5372999999999593
 20
28.6756000000000313
 30
0.0
 11
195.7362999999999715
 21
28.6756000000000313
 31
0.0
  0
LINE
  5
232
100
AcDbEntity
  8
switchs
 62
256
370
-1
 48
1.0
  6
BYLAYER
100
AcDbLine
 10
195.7362999999999715
 20
28.6756000000000313
 30
0.0
 11
195.7362999999999715
 21
34.475700000000046
 31
0.0
  0
LINE
  5
233
100
AcDbEntity
  8
switchs
 62
256
370
-1
 48
1.0
  6
BYLAYER
100
AcDbLine
 10
195.7362999999999715
 20
34.475700000000046
 30
0.0
 11
196.5372999999999593
 21
34.475700000000046
 31
0.0
  0
LINE
  5
234
100
AcDbEntity
  8
switchs
 62
256
370
-1
 48
1.0
  6
BYLAYER
100
AcDbLine
 10
196.5372999999999593
 20
34.475700000000046
 30
0.0
 11
196.5372999999999593
 21
37.5749000000000422
 31
0.0
  0
LINE
  5
235
100
AcDbEntity
  8
switchs
 62
256
370
-1
 48
1.0
  6
BYLAYER
100
AcDbLine
 10
196.5372999999999593
 20
37.5749000000000422
 30
0.0
 11
195.7362999999999715
 21
37.5749000000000422
 31
0.0
  0
LINE
  5
236
100
AcDbEntity
  8
switchs
 62
256
370
-1
 48
1.0
  6
BYLAYER
100
AcDbLine
 10
195.7362999999999715
 20
37.5749000000000422
 30
0.0
 11
195.7362999999999715
 21
38.5754000000000303
 31
0.0
  0
LINE
  5
237
100
AcDbEntity
  8
switchs
 62
256
370
-1
 48
1.0
  6
BYLAYER
100
AcDbLine
 10
195.7362999999999715
 20
38.5754000000000303
 30
0.0
 11
181.7372999999999479
 21
38.5754000000000303
 31
0.0
  0
LINE
  5
238
100
AcDbEntity
  8
switchs
 62
256
370
-1
 48
1.0
  6
BYLAYER
100
AcDbLine
 10
200.7872999999999593
 20
38.5754000000000303
 30
0.0
 11
200.7872999999999593
 21
37.5749000000000422
 31
0.0
  0
LINE
  5
239
100
AcDbEntity
  8
switchs
 62
256
370
-1
 48
1.0
  6
BYLAYER
100
AcDbLine
 10
200.7872999999999593
 20
37.5749000000000422
 30
0.0
 11
199.9862999999999715
 21
37.5749000000000422
 31
0.0
  0
LINE
  5
23A
100
AcDbEntity
  8
switchs
 62
256
370
-1
 48
1.0
  6
BYLAYER
100
AcDbLine
 10
199.9862999999999715
 20
37.5749000000000422
 30
0.0
 11
199.9862999999999715
 21
34.475700000000046
 31
0.0
  0
LINE
  5
23B
100
AcDbEntity
  8
switchs
 62
256
370
-1
 48
1.0
  6
BYLAYER
100
AcDbLine
 10
199.9862999999999715
 20
34.475700000000046
 30
0.0
 11
200.7872999999999593
 21
34.475700000000046
 31
0.0
  0
LINE
  5
23C
100
AcDbEntity
  8
switchs
 62
256
370
-1
 48
1.0
  6
BYLAYER
100
AcDbLine
 10
200.7872999999999593
 20
34.475700000000046
 30
0.0
 11
200.7872999999999593
 21
28.6756000000000313
 31
0.0
  0
LINE
  5
23D
100
AcDbEntity
  8
switchs
 62
256
370
-1
 48
1.0
  6
BYLAYER
100
AcDbLine
 10
200.7872999999999593
 20
28.6756000000000313
 30
0.0
 11
199.9862999999999715
 21
28.6756000000000313
 31
0.0
  0
LINE
  5
23E
100
AcDbEntity
  8
switchs
 62
256
370
-1
 48
1.0
  6
BYLAYER
100
AcDbLine
 10
199.9862999999999715
 20
28.6756000000000313
 30
0.0
 11
199.9862999999999715
 21
25.5750000000000455
 31
0.0
  0
LINE
  5
23F
100
AcDbEntity
  8
switchs
 62
256
370
-1
 48
1.0
  6
BYLAYER
100
AcDbLine
 10
199.9862999999999715
 20
25.5750000000000455
 30
0.0
 11
200.7872999999999593
 21
25.5750000000000455
 31
0.0
  0
LINE
  5
240
100
AcDbEntity
  8
switchs
 62
256
370
-1
 48
1.0
  6
BYLAYER
100
AcDbLine
 10
200.7872999999999593
 20
25.5750000000000455
 30
0.0
 11
200.7872999999999593
 21
24.5746000000000322
 31
0.0
  0
LINE
  5
241
100
AcDbEntity
  8
switchs
 62
256
370
-1
 48
1.0
  6
BYLAYER
100
AcDbLine
 10
200.7872999999999593
 20
24.5746000000000322
 30
0.0
 11
214.7862999999999545
 21
24.5746000000000322
 31
0.0
  0
LINE
  5
242
100
AcDbEntity
  8
switchs
 62
256
370
-1
 48
1.0
  6
BYLAYER
100
AcDbLine
 10
214.7862999999999545
 20
24.5746000000000322
 30
0.0
 11
214.7862999999999545
 21
25.5750000000000455
 31
0.0
  0
LINE
  5
243
100
AcDbEntity
  8
switchs
 62
256
370
-1
 48
1.0
  6
BYLAYER
100
AcDbLine
 10
214.7862999999999545
 20
25.5750000000000455
 30
0.0
 11
215.5872999999999706
 21
25.5750000000000455
 31
0.0
  0
LINE
  5
244
100
AcDbEntity
  8
switchs
 62
256
370
-1
 48
1.0
  6
BYLAYER
100
AcDbLine
 10
215.5872999999999706
 20
25.5750000000000455
 30
0.0
 11
215.5872999999999706
 21
28.6756000000000313
 31
0.0
  0
LINE
  5
245
100
AcDbEntity
  8
switchs
 62
256
370
-1
 48
1.0
  6
BYLAYER
100
AcDbLine
 10
215.5872999999999706
 20
28.6756000000000313
 30
0.0
 11
214.7862999999999545
 21
28.6756000000000313
 31
0.0
  0
LINE
  5
246
100
AcDbEntity
  8
switchs
 62
256
370
-1
 48
1.0
  6
BYLAYER
100
AcDbLine
 10
214.7862999999999545
 20
28.6756000000000313
 30
0.0
 11
214.7862999999999545
 21
34.475700000000046
 31
0.0
  0
LINE
  5
247
100
AcDbEntity
  8
switchs
 62
256
370
-1
 48
1.0
  6
BYLAYER
100
AcDbLine
 10
214.7862999999999545
 20
34.475700000000046
 30
0.0
 11
215.5872999999999706
 21
34.475700000000046
 31
0.0
  0
LINE
  5
248
100
AcDbEntity
  8
switchs
 62
256
370
-1
 48
1.0
  6
BYLAYER
100
AcDbLine
 10
215.5872999999999706
 20
34.475700000000046
 30
0.0
 11
215.5872999999999706
 21
37.5749000000000422
 31
0.0
  0
LINE
  5
249
100
AcDbEntity
  8
switchs
 62
256
370
-1
 48
1.0
  6
BYLAYER
100
AcDbLine
 10
215.5872999999999706
 20
37.5749000000000422
 30
0.0
 11
214.7862999999999545
 21
37.5749000000000422
 31
0.0
  0
LINE
  5
24A
100
AcDbEntity
  8
switchs
 62
256
370
-1
 48
1.0
  6
BYLAYER
100
AcDbLine
 10
214.7862999999999545
 20
37.5749000000000422
 30
0.0
 11
214.7862999999999545
 21
38.5754000000000303
 31
0.0
  0
LINE
  5
24B
100
AcDbEntity
  8
switchs
 62
256
370
-1
 48
1.0
  6
BYLAYER
100
AcDbLine
 10
214.7862999999999545
 20
38.5754000000000303
 30
0.0
 11
200.7872999999999593
 21
38.5754000000000303
 31
0.0
  0
LINE
  5
24C
100
AcDbEntity
  8
switchs
 62
256
370
-1
 48
1.0
  6
BYLAYER
100
AcDbLine
 10
219.8372999999999706
 20
38.5754000000000303
 30
0.0
 11
219.8372999999999706
 21
37.5749000000000422
 31
0.0
  0
LINE
  5
24D
100
AcDbEntity
  8
switchs
 62
256
370
-1
 48
1.0
  6
BYLAYER
100
AcDbLine
 10
219.8372999999999706
 20
37.5749000000000422
 30
0.0
 11
219.0362999999999545
 21
37.5749000000000422
 31
0.0
  0
LINE
  5
24E
100
AcDbEntity
  8
switchs
 62
256
370
-1
 48
1.0
  6
BYLAYER
100
AcDbLine
 10
219.0362999999999545
 20
37.5749000000000422
 30
0.0
 11
219.0362999999999545
 21
34.475700000000046
 31
0.0
  0
LINE
  5
24F
100
AcDbEntity
  8
switchs
 62
256
370
-1
 48
1.0
  6
BYLAYER
100
AcDbLine
 10
219.0362999999999545
 20
34.475700000000046
 30
0.0
 11
219.8372999999999706
 21
34.475700000000046
 31
0.0
  0
LINE
  5
250
100
AcDbEntity
  8
switchs
 62
256
370
-1
 48
1.0
  6
BYLAYER
100
AcDbLine
 10
219.8372999999999706
 20
34.475700000000046
 30
0.0
 11
219.8372999999999706
 21
28.6756000000000313
 31
0.0
  0
LINE
  5
251
100
AcDbEntity
  8
switchs
 62
256
370
-1
 48
1.0
  6
BYLAYER
100
AcDbLine
 10
219.8372999999999706
 20
28.6756000000000313
 30
0.0
 11
219.0362999999999545
 21
28.6756000000000313
 31
0.0
  0
LINE
  5
252
100
AcDbEntity
  8
switchs
 62
256
370
-1
 48
1.0
  6
BYLAYER
100
AcDbLine
 10
219.0362999999999545
 20
28.6756000000000313
 30
0.0
 11
219.0362999999999545
 21
25.5750000000000455
 31
0.0
  0
LINE
  5
253
100
AcDbEntity
  8
switchs
 62
256
370
-1
 48
1.0
  6
BYLAYER
100
AcDbLine
 10
219.0362999999999545
 20
25.5750000000000455
 30
0.0
 11
219.8372999999999706
 21
25.5750000000000455
 31
0.0
  0
LINE
  5
254
100
AcDbEntity
  8
switchs
 62
256
370
-1
 48
1.0
  6
BYLAYER
100
AcDbLine
 10
219.8372999999999706
 20
25.5750000000000455
 30
0.0
 11
219.8372999999999706
 21
24.5746000000000322
 31
0.0
  0
LINE
  5
255
100
AcDbEntity
  8
switchs
 62
256
370
-1
 48
1.0
  6
BYLAYER
100
AcDbLine
 10
219.8372999999999706
 20
24.5746000000000322
 30
0.0
 11
233.8362999999999658
 21
24.5746000000000322
 31
0.0
  0
LINE
  5
256
100
AcDbEntity
  8
switchs
 62
256
370
-1
 48
1.0
  6
BYLAYER
100
AcDbLine
 10
233.8362999999999658
 20
24.5746000000000322
 30
0.0
 11
233.8362999999999658
 21
25.5750000000000455
 31
0.0
  0
LINE
  5
257
100
AcDbEntity
  8
switchs
 62
256
370
-1
 48
1.0
  6
BYLAYER
100
AcDbLine
 10
233.8362999999999658
 20
25.5750000000000455
 30
0.0
 11
234.6372999999999536
 21
25.5750000000000455
 31
0.0
  0
LINE
  5
258
100
AcDbEntity
  8
switchs
 62
256
370
-1
 48
1.0
  6
BYLAYER
100
AcDbLine
 10
234.6372999999999536
 20
25.5750000000000455
 30
0.0
 11
234.6372999999999536
 21
28.6756000000000313
 31
0.0
  0
LINE
  5
259
100
AcDbEntity
  8
switchs
 62
256
370
-1
 48
1.0
  6
BYLAYER
100
AcDbLine
 10
234.6372999999999536
 20
28.6756000000000313
 30
0.0
 11
233.8362999999999658
 21
28.6756000000000313
 31
0.0
  0
LINE
  5
25A
100
AcDbEntity
  8
switchs
 62
256
370
-1
 48
1.0
  6
BYLAYER
100
AcDbLine
 10
233.8362999999999658
 20
28.6756000000000313
 30
0.0
 11
233.8362999999999658
 21
34.475700000000046
 31
0.0
  0
LINE
  5
25B
100
AcDbEntity
  8
switchs
 62
256
370
-1
 48
1.0
  6
BYLAYER
100
AcDbLine
 10
233.8362999999999658
 20
34.475700000000046
 30
0.0
 11
234.6372999999999536
 21
34.475700000000046
 31
0.0
  0
LINE
  5
25C
100
AcDbEntity
  8
switchs
 62
256
370
-1
 48
1.0
  6
BYLAYER
100
AcDbLine
 10
234.6372999999999536
 20
34.475700000000046
 30
0.0
 11
234.6372999999999536
 21
37.5749000000000422
 31
0.0
  0
LINE
  5
25D
100
AcDbEntity
  8
switchs
 62
256
370
-1
 48
1.0
  6
BYLAYER
100
AcDbLine
 10
234.6372999999999536
 20
37.5749000000000422
 30
0.0
 11
233.8362999999999658
 21
37.5749000000000422
 31
0.0
  0
LINE
  5
25E
100
AcDbEntity
  8
switchs
 62
256
370
-1
 48
1.0
  6
BYLAYER
100
AcDbLine
 10
233.8362999999999658
 20
37.5749000000000422
 30
0.0
 11
233.8362999999999658
 21
38.5754000000000303
 31
0.0
  0
LINE
  5
25F
100
AcDbEntity
  8
switchs
 62
256
370
-1
 48
1.0
  6
BYLAYER
100
AcDbLine
 10
233.8362999999999658
 20
38.5754000000000303
 30
0.0
 11
219.8372999999999706
 21
38.5754000000000303
 31
0.0
  0
LINE
  5
260
100
AcDbEntity
  8
switchs
 62
256
370
-1
 48
1.0
  6
BYLAYER
100
AcDbLine
 10
246.031299999999959
 20
38.5754000000000303
 30
0.0
 11
246.031299999999959
 21
37.5749000000000422
 31
0.0
  0
LINE
  5
261
100
AcDbEntity
  8
switchs
 62
256
370
-1
 48
1.0
  6
BYLAYER
100
AcDbLine
 10
246.031299999999959
 20
37.5749000000000422
 30
0.0
 11
245.2312999999999477
 21
37.5749000000000422
 31
0.0
  0
LINE
  5
262
100
AcDbEntity
  8
switchs
 62
256
370
-1
 48
1.0
  6
BYLAYER
100
AcDbLine
 10
245.2312999999999477
 20
37.5749000000000422
 30
0.0
 11
245.2312999999999477
 21
34.475700000000046
 31
0.0
  0
LINE
  5
263
100
AcDbEntity
  8
switchs
 62
256
370
-1
 48
1.0
  6
BYLAYER
100
AcDbLine
 10
245.2312999999999477
 20
34.475700000000046
 30
0.0
 11
246.031299999999959
 21
34.475700000000046
 31
0.0
  0
LINE
  5
264
100
AcDbEntity
  8
switchs
 62
256
370
-1
 48
1.0
  6
BYLAYER
100
AcDbLine
 10
246.031299999999959
 20
34.475700000000046
 30
0.0
 11
246.031299999999959
 21
28.6756000000000313
 31
0.0
  0
LINE
  5
265
100
AcDbEntity
  8
switchs
 62
256
370
-1
 48
1.0
  6
BYLAYER
100
AcDbLine
 10
246.031299999999959
 20
28.6756000000000313
 30
0.0
 11
245.2312999999999477
 21
28.6756000000000313
 31
0.0
  0
LINE
  5
266
100
AcDbEntity
  8
switchs
 62
256
370
-1
 48
1.0
  6
BYLAYER
100
AcDbLine
 10
245.2312999999999477
 20
28.6756000000000313
 30
0.0
 11
245.2312999999999477
 21
25.5750000000000455
 31
0.0
  0
LINE
  5
267
100
AcDbEntity
  8
switchs
 62
256
370
-1
 48
1.0
  6
BYLAYER
100
AcDbLine
 10
245.2312999999999477
 20
25.5750000000000455
 30
0.0
 11
246.031299999999959
 21
25.5750000000000455
 31
0.0
  0
LINE
  5
268
100
AcDbEntity
  8
switchs
 62
256
370
-1
 48
1.0
  6
BYLAYER
100
AcDbLine
 10
246.031299999999959
 20
25.5750000000000455
 30
0.0
 11
246.031299999999959
 21
24.5746000000000322
 31
0.0
  0
LINE
  5
269
100
AcDbEntity
  8
switchs
 62
256
370
-1
 48
1.0
  6
BYLAYER
100
AcDbLine
 10
246.031299999999959
 20
24.5746000000000322
 30
0.0
 11
260.0312999999999874
 21
24.5746000000000322
 31
0.0
  0
LINE
  5
26A
100
AcDbEntity
  8
switchs
 62
256
370
-1
 48
1.0
  6
BYLAYER
100
AcDbLine
 10
260.0312999999999874
 20
24.5746000000000322
 30
0.0
 11
260.0312999999999874
 21
25.5750000000000455
 31
0.0
  0
LINE
  5
26B
100
AcDbEntity
  8
switchs
 62
256
370
-1
 48
1.0
  6
BYLAYER
100
AcDbLine
 10
260.0312999999999874
 20
25.5750000000000455
 30
0.0
 11
260.8312999999999988
 21
25.5750000000000455
 31
0.0
  0
LINE
  5
26C
100
AcDbEntity
  8
switchs
 62
256
370
-1
 48
1.0
  6
BYLAYER
100
AcDbLine
 10
260.8312999999999988
 20
25.5750000000000455
 30
0.0
 11
260.8312999999999988
 21
28.6756000000000313
 31
0.0
  0
LINE
  5
26D
100
AcDbEntity
  8
switchs
 62
256
370
-1
 48
1.0
  6
BYLAYER
100
AcDbLine
 10
260.8312999999999988
 20
28.6756000000000313
 30
0.0
 11
260.0312999999999874
 21
28.6756000000000313
 31
0.0
  0
LINE
  5
26E
100
AcDbEntity
  8
switchs
 62
256
370
-1
 48
1.0
  6
BYLAYER
100
AcDbLine
 10
260.0312999999999874
 20
28.6756000000000313
 30
0.0
 11
260.0312999999999874
 21
34.475700000000046
 31
0.0
  0
LINE
  5
26F
100
AcDbEntity
  8
switchs
 62
256
370
-1
 48
1.0
  6
BYLAYER
100
AcDbLine
 10
260.0312999999999874
 20
34.475700000000046
 30
0.0
 11
260.8312999999999988
 21
34.475700000000046
 31
0.0
  0
LINE
  5
270
100
AcDbEntity
  8
switchs
 62
256
370
-1
 48
1.0
  6
BYLAYER
100
AcDbLine
 10
260.8312999999999988
 20
34.475700000000046
 30
0.0
 11
260.8312999999999988
 21
37.5749000000000422
 31
0.0
  0
LINE
  5
271
100
AcDbEntity
  8
switchs
 62
256
370
-1
 48
1.0
  6
BYLAYER
100
AcDbLine
 10
260.8312999999999988
 20
37.5749000000000422
 30
0.0
 11
260.0312999999999874
 21
37.5749000000000422
 31
0.0
  0
LINE
  5
272
100
AcDbEntity
  8
switchs
 62
256
370
-1
 48
1.0
  6
BYLAYER
100
AcDbLine
 10
260.0312999999999874
 20
37.5749000000000422
 30
0.0
 11
260.0312999999999874
 21
38.5754000000000303
 31
0.0
  0
LINE
  5
273
100
AcDbEntity
  8
switchs
 62
256
370
-1
 48
1.0
  6
BYLAYER
100
AcDbLine
 10
260.0312999999999874
 20
38.5754000000000303
 30
0.0
 11
246.031299999999959
 21
38.5754000000000303
 31
0.0
  0
LINE
  5
274
100
AcDbEntity
  8
switchs
 62
256
370
-1
 48
1.0
  6
BYLAYER
100
AcDbLine
 10
272.2242999999999711
 20
38.5754000000000303
 30
0.0
 11
272.2242999999999711
 21
37.5749000000000422
 31
0.0
  0
LINE
  5
275
100
AcDbEntity
  8
switchs
 62
256
370
-1
 48
1.0
  6
BYLAYER
100
AcDbLine
 10
272.2242999999999711
 20
37.5749000000000422
 30
0.0
 11
271.4252999999999929
 21
37.5749000000000422
 31
0.0
  0
LINE
  5
276
100
AcDbEntity
  8
switchs
 62
256
370
-1
 48
1.0
  6
BYLAYER
100
AcDbLine
 10
271.4252999999999929
 20
37.5749000000000422
 30
0.0
 11
271.4252999999999929
 21
34.475700000000046
 31
0.0
  0
LINE
  5
277
100
AcDbEntity
  8
switchs
 62
256
370
-1
 48
1.0
  6
BYLAYER
100
AcDbLine
 10
271.4252999999999929
 20
34.475700000000046
 30
0.0
 11
272.2242999999999711
 21
34.475700000000046
 31
0.0
  0
LINE
  5
278
100
AcDbEntity
  8
switchs
 62
256
370
-1
 48
1.0
  6
BYLAYER
100
AcDbLine
 10
272.2242999999999711
 20
34.475700000000046
 30
0.0
 11
272.2242999999999711
 21
28.6756000000000313
 31
0.0
  0
LINE
  5
279
100
AcDbEntity
  8
switchs
 62
256
370
-1
 48
1.0
  6
BYLAYER
100
AcDbLine
 10
272.2242999999999711
 20
28.6756000000000313
 30
0.0
 11
271.4252999999999929
 21
28.6756000000000313
 31
0.0
  0
LINE
  5
27A
100
AcDbEntity
  8
switchs
 62
256
370
-1
 48
1.0
  6
BYLAYER
100
AcDbLine
 10
271.4252999999999929
 20
28.6756000000000313
 30
0.0
 11
271.4252999999999929
 21
25.5750000000000455
 31
0.0
  0
LINE
  5
27B
100
AcDbEntity
  8
switchs
 62
256
370
-1
 48
1.0
  6
BYLAYER
100
AcDbLine
 10
271.4252999999999929
 20
25.5750000000000455
 30
0.0
 11
272.2242999999999711
 21
25.5750000000000455
 31
0.0
  0
LINE
  5
27C
100
AcDbEntity
  8
switchs
 62
256
370
-1
 48
1.0
  6
BYLAYER
100
AcDbLine
 10
272.2242999999999711
 20
25.5750000000000455
 30
0.0
 11
272.2242999999999711
 21
24.5746000000000322
 31
0.0
  0
LINE
  5
27D
100
AcDbEntity
  8
switchs
 62
256
370
-1
 48
1.0
  6
BYLAYER
100
AcDbLine
 10
272.2242999999999711
 20
24.5746000000000322
 30
0.0
 11
286.2253000000000043
 21
24.5746000000000322
 31
0.0
  0
LINE
  5
27E
100
AcDbEntity
  8
switchs
 62
256
370
-1
 48
1.0
  6
BYLAYER
100
AcDbLine
 10
286.2253000000000043
 20
24.5746000000000322
 30
0.0
 11
286.2253000000000043
 21
25.5750000000000455
 31
0.0
  0
LINE
  5
27F
100
AcDbEntity
  8
switchs
 62
256
370
-1
 48
1.0
  6
BYLAYER
100
AcDbLine
 10
286.2253000000000043
 20
25.5750000000000455
 30
0.0
 11
287.0242999999999824
 21
25.5750000000000455
 31
0.0
  0
LINE
  5
280
100
AcDbEntity
  8
switchs
 62
256
370
-1
 48
1.0
  6
BYLAYER
100
AcDbLine
 10
287.0242999999999824
 20
25.5750000000000455
 30
0.0
 11
287.0242999999999824
 21
28.6756000000000313
 31
0.0
  0
LINE
  5
281
100
AcDbEntity
  8
switchs
 62
256
370
-1
 48
1.0
  6
BYLAYER
100
AcDbLine
 10
287.0242999999999824
 20
28.6756000000000313
 30
0.0
 11
286.2253000000000043
 21
28.6756000000000313
 31
0.0
  0
LINE
  5
282
100
AcDbEntity
  8
switchs
 62
256
370
-1
 48
1.0
  6
BYLAYER
100
AcDbLine
 10
286.2253000000000043
 20
28.6756000000000313
 30
0.0
 11
286.2253000000000043
 21
34.475700000000046
 31
0.0
  0
LINE
  5
283
100
AcDbEntity
  8
switchs
 62
256
370
-1
 48
1.0
  6
BYLAYER
100
AcDbLine
 10
286.2253000000000043
 20
34.475700000000046
 30
0.0
 11
287.0242999999999824
 21
34.475700000000046
 31
0.0
  0
LINE
  5
284
100
AcDbEntity
  8
switchs
 62
256
370
-1
 48
1.0
  6
BYLAYER
100
AcDbLine
 10
287.0242999999999824
 20
34.475700000000046
 30
0.0
 11
287.0242999999999824
 21
37.5749000000000422
 31
0.0
  0
LINE
  5
285
100
AcDbEntity
  8
switchs
 62
256
370
-1
 48
1.0
  6
BYLAYER
100
AcDbLine
 10
287.0242999999999824
 20
37.5749000000000422
 30
0.0
 11
286.2253000000000043
 21
37.5749000000000422
 31
0.0
  0
LINE
  5
286
100
AcDbEntity
  8
switchs
 62
256
370
-1
 48
1.0
  6
BYLAYER
100
AcDbLine
 10
286.2253000000000043
 20
37.5749000000000422
 30
0.0
 11
286.2253000000000043
 21
38.5754000000000303
 31
0.0
  0
LINE
  5
287
100
AcDbEntity
  8
switchs
 62
256
370
-1
 48
1.0
  6
BYLAYER
100
AcDbLine
 10
286.2253000000000043
 20
38.5754000000000303
 30
0.0
 11
272.2242999999999711
 21
38.5754000000000303
 31
0.0
  0
LINE
  5
288
100
AcDbEntity
  8
switchs
 62
256
370
-1
 48
1.0
  6
BYLAYER
100
AcDbLine
 10
260.3182999999999652
 20
57.6254000000000417
 30
0.0
 11
260.3182999999999652
 21
56.6249000000000393
 31
0.0
  0
LINE
  5
289
100
AcDbEntity
  8
switchs
 62
256
370
-1
 48
1.0
  6
BYLAYER
100
AcDbLine
 10
260.3182999999999652
 20
56.6249000000000393
 30
0.0
 11
259.5172999999999774
 21
56.6249000000000393
 31
0.0
  0
LINE
  5
28A
100
AcDbEntity
  8
switchs
 62
256
370
-1
 48
1.0
  6
BYLAYER
100
AcDbLine
 10
259.5172999999999774
 20
56.6249000000000393
 30
0.0
 11
259.5172999999999774
 21
53.5243000000000393
 31
0.0
  0
LINE
  5
28B
100
AcDbEntity
  8
switchs
 62
256
370
-1
 48
1.0
  6
BYLAYER
100
AcDbLine
 10
259.5172999999999774
 20
53.5243000000000393
 30
0.0
 11
260.3182999999999652
 21
53.5243000000000393
 31
0.0
  0
LINE
  5
28C
100
AcDbEntity
  8
switchs
 62
256
370
-1
 48
1.0
  6
BYLAYER
100
AcDbLine
 10
260.3182999999999652
 20
53.5243000000000393
 30
0.0
 11
260.3182999999999652
 21
52.9249000000000365
 31
0.0
  0
LINE
  5
28D
100
AcDbEntity
  8
switchs
 62
256
370
-1
 48
1.0
  6
BYLAYER
100
AcDbLine
 10
260.3182999999999652
 20
52.9249000000000365
 30
0.0
 11
258.7432999999999765
 21
52.9249000000000365
 31
0.0
  0
LINE
  5
28E
100
AcDbEntity
  8
switchs
 62
256
370
-1
 48
1.0
  6
BYLAYER
100
AcDbLine
 10
258.7432999999999765
 20
52.9249000000000365
 30
0.0
 11
258.7432999999999765
 21
56.1550000000000296
 31
0.0
  0
LINE
  5
28F
100
AcDbEntity
  8
switchs
 62
256
370
-1
 48
1.0
  6
BYLAYER
100
AcDbLine
 10
258.7432999999999765
 20
56.1550000000000296
 30
0.0
 11
257.0672999999999888
 21
56.1550000000000296
 31
0.0
  0
LINE
  5
290
100
AcDbEntity
  8
switchs
 62
256
370
-1
 48
1.0
  6
BYLAYER
100
AcDbLine
 10
257.0672999999999888
 20
56.1550000000000296
 30
0.0
 11
257.0672999999999888
 21
57.0757000000000403
 31
0.0
  0
LINE
  5
291
100
AcDbEntity
  8
switchs
 62
256
370
-1
 48
1.0
  6
BYLAYER
100
AcDbLine
 10
257.0672999999999888
 20
57.0757000000000403
 30
0.0
 11
253.767299999999949
 21
57.0757000000000403
 31
0.0
  0
LINE
  5
292
100
AcDbEntity
  8
switchs
 62
256
370
-1
 48
1.0
  6
BYLAYER
100
AcDbLine
 10
253.767299999999949
 20
57.0757000000000403
 30
0.0
 11
253.767299999999949
 21
56.1550000000000296
 31
0.0
  0
LINE
  5
293
100
AcDbEntity
  8
switchs
 62
256
370
-1
 48
1.0
  6
BYLAYER
100
AcDbLine
 10
253.767299999999949
 20
56.1550000000000296
 30
0.0
 11
252.0922999999999945
 21
56.1550000000000296
 31
0.0
  0
LINE
  5
294
100
AcDbEntity
  8
switchs
 62
256
370
-1
 48
1.0
  6
BYLAYER
100
AcDbLine
 10
252.0922999999999945
 20
56.1550000000000296
 30
0.0
 11
252.0922999999999945
 21
52.9249000000000365
 31
0.0
  0
LINE
  5
295
100
AcDbEntity
  8
switchs
 62
256
370
-1
 48
1.0
  6
BYLAYER
100
AcDbLine
 10
252.0922999999999945
 20
52.9249000000000365
 30
0.0
 11
251.2182999999999709
 21
52.9249000000000365
 31
0.0
  0
LINE
  5
296
100
AcDbEntity
  8
switchs
 62
256
370
-1
 48
1.0
  6
BYLAYER
100
AcDbLine
 10
251.2182999999999709
 20
52.9249000000000365
 30
0.0
 11
251.2182999999999709
 21
50.1246000000000436
 31
0.0
  0
LINE
  5
297
100
AcDbEntity
  8
switchs
 62
256
370
-1
 48
1.0
  6
BYLAYER
100
AcDbLine
 10
251.2182999999999709
 20
50.1246000000000436
 30
0.0
 11
252.0922999999999945
 21
50.1246000000000436
 31
0.0
  0
LINE
  5
298
100
AcDbEntity
  8
switchs
 62
256
370
-1
 48
1.0
  6
BYLAYER
100
AcDbLine
 10
252.0922999999999945
 20
50.1246000000000436
 30
0.0
 11
252.0922999999999945
 21
43.8561000000000405
 31
0.0
  0
LINE
  5
299
100
AcDbEntity
  8
switchs
 62
256
370
-1
 48
1.0
  6
BYLAYER
100
AcDbLine
 10
252.0922999999999945
 20
43.8561000000000405
 30
0.0
 11
253.767299999999949
 21
43.8561000000000405
 31
0.0
  0
LINE
  5
29A
100
AcDbEntity
  8
switchs
 62
256
370
-1
 48
1.0
  6
BYLAYER
100
AcDbLine
 10
253.767299999999949
 20
43.8561000000000405
 30
0.0
 11
253.767299999999949
 21
42.8750000000000284
 31
0.0
  0
LINE
  5
29B
100
AcDbEntity
  8
switchs
 62
256
370
-1
 48
1.0
  6
BYLAYER
100
AcDbLine
 10
253.767299999999949
 20
42.8750000000000284
 30
0.0
 11
257.0672999999999888
 21
42.8750000000000284
 31
0.0
  0
LINE
  5
29C
100
AcDbEntity
  8
switchs
 62
256
370
-1
 48
1.0
  6
BYLAYER
100
AcDbLine
 10
257.0672999999999888
 20
42.8750000000000284
 30
0.0
 11
257.0672999999999888
 21
43.8561000000000405
 31
0.0
  0
LINE
  5
29D
100
AcDbEntity
  8
switchs
 62
256
370
-1
 48
1.0
  6
BYLAYER
100
AcDbLine
 10
257.0672999999999888
 20
43.8561000000000405
 30
0.0
 11
258.7432999999999765
 21
43.8561000000000405
 31
0.0
  0
LINE
  5
29E
100
AcDbEntity
  8
switchs
 62
256
370
-1
 48
1.0
  6
BYLAYER
100
AcDbLine
 10
258.7432999999999765
 20
43.8561000000000405
 30
0.0
 11
258.7432999999999765
 21
48.3251000000000346
 31
0.0
  0
LINE
  5
29F
100
AcDbEntity
  8
switchs
 62
256
370
-1
 48
1.0
  6
BYLAYER
100
AcDbLine
 10
258.7432999999999765
 20
48.3251000000000346
 30
0.0
 11
260.3182999999999652
 21
48.3251000000000346
 31
0.0
  0
LINE
  5
2A0
100
AcDbEntity
  8
switchs
 62
256
370
-1
 48
1.0
  6
BYLAYER
100
AcDbLine
 10
260.3182999999999652
 20
48.3251000000000346
 30
0.0
 11
260.3182999999999652
 21
47.725700000000046
 31
0.0
  0
LINE
  5
2A1
100
AcDbEntity
  8
switchs
 62
256
370
-1
 48
1.0
  6
BYLAYER
100
AcDbLine
 10
260.3182999999999652
 20
47.725700000000046
 30
0.0
 11
259.5172999999999774
 21
47.725700000000046
 31
0.0
  0
LINE
  5
2A2
100
AcDbEntity
  8
switchs
 62
256
370
-1
 48
1.0
  6
BYLAYER
100
AcDbLine
 10
259.5172999999999774
 20
47.725700000000046
 30
0.0
 11
259.5172999999999774
 21
44.6251000000000317
 31
0.0
  0
LINE
  5
2A3
100
AcDbEntity
  8
switchs
 62
256
370
-1
 48
1.0
  6
BYLAYER
100
AcDbLine
 10
259.5172999999999774
 20
44.6251000000000317
 30
0.0
 11
260.3182999999999652
 21
44.6251000000000317
 31
0.0
  0
LINE
  5
2A4
100
AcDbEntity
  8
switchs
 62
256
370
-1
 48
1.0
  6
BYLAYER
100
AcDbLine
 10
260.3182999999999652
 20
44.6251000000000317
 30
0.0
 11
260.3182999999999652
 21
43.6247000000000469
 31
0.0
  0
LINE
  5
2A5
100
AcDbEntity
  8
switchs
 62
256
370
-1
 48
1.0
  6
BYLAYER
100
AcDbLine
 10
260.3182999999999652
 20
43.6247000000000469
 30
0.0
 11
274.3172999999999888
 21
43.6247000000000469
 31
0.0
  0
LINE
  5
2A6
100
AcDbEntity
  8
switchs
 62
256
370
-1
 48
1.0
  6
BYLAYER
100
AcDbLine
 10
274.3172999999999888
 20
43.6247000000000469
 30
0.0
 11
274.3172999999999888
 21
44.6251000000000317
 31
0.0
  0
LINE
  5
2A7
100
AcDbEntity
  8
switchs
 62
256
370
-1
 48
1.0
  6
BYLAYER
100
AcDbLine
 10
274.3172999999999888
 20
44.6251000000000317
 30
0.0
 11
275.1182999999999765
 21
44.6251000000000317
 31
0.0
  0
LINE
  5
2A8
100
AcDbEntity
  8
switchs
 62
256
370
-1
 48
1.0
  6
BYLAYER
100
AcDbLine
 10
275.1182999999999765
 20
44.6251000000000317
 30
0.0
 11
275.1182999999999765
 21
47.725700000000046
 31
0.0
  0
LINE
  5
2A9
100
AcDbEntity
  8
switchs
 62
256
370
-1
 48
1.0
  6
BYLAYER
100
AcDbLine
 10
275.1182999999999765
 20
47.725700000000046
 30
0.0
 11
274.3172999999999888
 21
47.725700000000046
 31
0.0
  0
LINE
  5
2AA
100
AcDbEntity
  8
switchs
 62
256
370
-1
 48
1.0
  6
BYLAYER
100
AcDbLine
 10
274.3172999999999888
 20
47.725700000000046
 30
0.0
 11
274.3172999999999888
 21
48.3251000000000346
 31
0.0
  0
LINE
  5
2AB
100
AcDbEntity
  8
switchs
 62
256
370
-1
 48
1.0
  6
BYLAYER
100
AcDbLine
 10
274.3172999999999888
 20
48.3251000000000346
 30
0.0
 11
275.8933000000000106
 21
48.3251000000000346
 31
0.0
  0
LINE
  5
2AC
100
AcDbEntity
  8
switchs
 62
256
370
-1
 48
1.0
  6
BYLAYER
100
AcDbLine
 10
275.8933000000000106
 20
48.3251000000000346
 30
0.0
 11
275.8933000000000106
 21
43.8561000000000405
 31
0.0
  0
LINE
  5
2AD
100
AcDbEntity
  8
switchs
 62
256
370
-1
 48
1.0
  6
BYLAYER
100
AcDbLine
 10
275.8933000000000106
 20
43.8561000000000405
 30
0.0
 11
277.5682999999999652
 21
43.8561000000000405
 31
0.0
  0
LINE
  5
2AE
100
AcDbEntity
  8
switchs
 62
256
370
-1
 48
1.0
  6
BYLAYER
100
AcDbLine
 10
277.5682999999999652
 20
43.8561000000000405
 30
0.0
 11
277.5682999999999652
 21
42.8750000000000284
 31
0.0
  0
LINE
  5
2AF
100
AcDbEntity
  8
switchs
 62
256
370
-1
 48
1.0
  6
BYLAYER
100
AcDbLine
 10
277.5682999999999652
 20
42.8750000000000284
 30
0.0
 11
280.8673000000000002
 21
42.8750000000000284
 31
0.0
  0
LINE
  5
2B0
100
AcDbEntity
  8
switchs
 62
256
370
-1
 48
1.0
  6
BYLAYER
100
AcDbLine
 10
280.8673000000000002
 20
42.8750000000000284
 30
0.0
 11
280.8673000000000002
 21
43.8561000000000405
 31
0.0
  0
LINE
  5
2B1
100
AcDbEntity
  8
switchs
 62
256
370
-1
 48
1.0
  6
BYLAYER
100
AcDbLine
 10
280.8673000000000002
 20
43.8561000000000405
 30
0.0
 11
282.5432999999999879
 21
43.8561000000000405
 31
0.0
  0
LINE
  5
2B2
100
AcDbEntity
  8
switchs
 62
256
370
-1
 48
1.0
  6
BYLAYER
100
AcDbLine
 10
282.5432999999999879
 20
43.8561000000000405
 30
0.0
 11
282.5432999999999879
 21
50.1246000000000436
 31
0.0
  0
LINE
  5
2B3
100
AcDbEntity
  8
switchs
 62
256
370
-1
 48
1.0
  6
BYLAYER
100
AcDbLine
 10
282.5432999999999879
 20
50.1246000000000436
 30
0.0
 11
283.4182999999999879
 21
50.1246000000000436
 31
0.0
  0
LINE
  5
2B4
100
AcDbEntity
  8
switchs
 62
256
370
-1
 48
1.0
  6
BYLAYER
100
AcDbLine
 10
283.4182999999999879
 20
50.1246000000000436
 30
0.0
 11
283.4182999999999879
 21
52.9249000000000365
 31
0.0
  0
LINE
  5
2B5
100
AcDbEntity
  8
switchs
 62
256
370
-1
 48
1.0
  6
BYLAYER
100
AcDbLine
 10
283.4182999999999879
 20
52.9249000000000365
 30
0.0
 11
282.5432999999999879
 21
52.9249000000000365
 31
0.0
  0
LINE
  5
2B6
100
AcDbEntity
  8
switchs
 62
256
370
-1
 48
1.0
  6
BYLAYER
100
AcDbLine
 10
282.5432999999999879
 20
52.9249000000000365
 30
0.0
 11
282.5432999999999879
 21
56.1550000000000296
 31
0.0
  0
LINE
  5
2B7
100
AcDbEntity
  8
switchs
 62
256
370
-1
 48
1.0
  6
BYLAYER
100
AcDbLine
 10
282.5432999999999879
 20
56.1550000000000296
 30
0.0
 11
280.8673000000000002
 21
56.1550000000000296
 31
0.0
  0
LINE
  5
2B8
100
AcDbEntity
  8
switchs
 62
256
370
-1
 48
1.0
  6
BYLAYER
100
AcDbLine
 10
280.8673000000000002
 20
56.1550000000000296
 30
0.0
 11
280.8673000000000002
 21
57.0757000000000403
 31
0.0
  0
LINE
  5
2B9
100
AcDbEntity
  8
switchs
 62
256
370
-1
 48
1.0
  6
BYLAYER
100
AcDbLine
 10
280.8673000000000002
 20
57.0757000000000403
 30
0.0
 11
277.5682999999999652
 21
57.0757000000000403
 31
0.0
  0
LINE
  5
2BA
100
AcDbEntity
  8
switchs
 62
256
370
-1
 48
1.0
  6
BYLAYER
100
AcDbLine
 10
277.5682999999999652
 20
57.0757000000000403
 30
0.0
 11
277.5682999999999652
 21
56.1550000000000296
 31
0.0
  0
LINE
  5
2BB
100
AcDbEntity
  8
switchs
 62
256
370
-1
 48
1.0
  6
BYLAYER
100
AcDbLine
 10
277.5682999999999652
 20
56.1550000000000296
 30
0.0
 11
275.8933000000000106
 21
56.1550000000000296
 31
0.0
  0
LINE
  5
2BC
100
AcDbEntity
  8
switchs
 62
256
370
-1
 48
1.0
  6
BYLAYER
100
AcDbLine
 10
275.8933000000000106
 20
56.1550000000000296
 30
0.0
 11
275.8933000000000106
 21
52.9249000000000365
 31
0.0
  0
LINE
  5
2BD
100
AcDbEntity
  8
switchs
 62
256
370
-1
 48
1.0
  6
BYLAYER
100
AcDbLine
 10
275.8933000000000106
 20
52.9249000000000365
 30
0.0
 11
274.3172999999999888
 21
52.9249000000000365
 31
0.0
  0
LINE
  5
2BE
100
AcDbEntity
  8
switchs
 62
256
370
-1
 48
1.0
  6
BYLAYER
100
AcDbLine
 10
274.3172999999999888
 20
52.9249000000000365
 30
0.0
 11
274.3172999999999888
 21
53.5243000000000393
 31
0.0
  0
LINE
  5
2BF
100
AcDbEntity
  8
switchs
 62
256
370
-1
 48
1.0
  6
BYLAYER
100
AcDbLine
 10
274.3172999999999888
 20
53.5243000000000393
 30
0.0
 11
275.1182999999999765
 21
53.5243000000000393
 31
0.0
  0
LINE
  5
2C0
100
AcDbEntity
  8
switchs
 62
256
370
-1
 48
1.0
  6
BYLAYER
100
AcDbLine
 10
275.1182999999999765
 20
53.5243000000000393
 30
0.0
 11
275.1182999999999765
 21
56.6249000000000393
 31
0.0
  0
LINE
  5
2C1
100
AcDbEntity
  8
switchs
 62
256
370
-1
 48
1.0
  6
BYLAYER
100
AcDbLine
 10
275.1182999999999765
 20
56.6249000000000393
 30
0.0
 11
274.3172999999999888
 21
56.6249000000000393
 31
0.0
  0
LINE
  5
2C2
100
AcDbEntity
  8
switchs
 62
256
370
-1
 48
1.0
  6
BYLAYER
100
AcDbLine
 10
274.3172999999999888
 20
56.6249000000000393
 30
0.0
 11
274.3172999999999888
 21
57.6254000000000417
 31
0.0
  0
LINE
  5
2C3
100
AcDbEntity
  8
switchs
 62
256
370
-1
 48
1.0
  6
BYLAYER
100
AcDbLine
 10
274.3172999999999888
 20
57.6254000000000417
 30
0.0
 11
260.3182999999999652
 21
57.6254000000000417
 31
0.0
  0
LINE
  5
2C4
100
AcDbEntity
  8
switchs
 62
256
370
-1
 48
1.0
  6
BYLAYER
100
AcDbLine
 10
12.6682999999999701
 20
43.6247000000000469
 30
0.0
 11
26.6677999999999678
 21
43.6247000000000469
 31
0.0
  0
LINE
  5
2C5
100
AcDbEntity
  8
switchs
 62
256
370
-1
 48
1.0
  6
BYLAYER
100
AcDbLine
 10
26.6677999999999678
 20
43.6247000000000469
 30
0.0
 11
26.6677999999999678
 21
44.6251000000000317
 31
0.0
  0
LINE
  5
2C6
100
AcDbEntity
  8
switchs
 62
256
370
-1
 48
1.0
  6
BYLAYER
100
AcDbLine
 10
26.6677999999999678
 20
44.6251000000000317
 30
0.0
 11
27.4683999999999706
 21
44.6251000000000317
 31
0.0
  0
LINE
  5
2C7
100
AcDbEntity
  8
switchs
 62
256
370
-1
 48
1.0
  6
BYLAYER
100
AcDbLine
 10
27.4683999999999706
 20
44.6251000000000317
 30
0.0
 11
27.4683999999999706
 21
47.725700000000046
 31
0.0
  0
LINE
  5
2C8
100
AcDbEntity
  8
switchs
 62
256
370
-1
 48
1.0
  6
BYLAYER
100
AcDbLine
 10
27.4683999999999706
 20
47.725700000000046
 30
0.0
 11
26.6677999999999678
 21
47.725700000000046
 31
0.0
  0
LINE
  5
2C9
100
AcDbEntity
  8
switchs
 62
256
370
-1
 48
1.0
  6
BYLAYER
100
AcDbLine
 10
26.6677999999999678
 20
47.725700000000046
 30
0.0
 11
26.6677999999999678
 21
53.5243000000000393
 31
0.0
  0
LINE
  5
2CA
100
AcDbEntity
  8
switchs
 62
256
370
-1
 48
1.0
  6
BYLAYER
100
AcDbLine
 10
26.6677999999999678
 20
53.5243000000000393
 30
0.0
 11
27.4683999999999706
 21
53.5243000000000393
 31
0.0
  0
LINE
  5
2CB
100
AcDbEntity
  8
switchs
 62
256
370
-1
 48
1.0
  6
BYLAYER
100
AcDbLine
 10
27.4683999999999706
 20
53.5243000000000393
 30
0.0
 11
27.4683999999999706
 21
56.6249000000000393
 31
0.0
  0
LINE
  5
2CC
100
AcDbEntity
  8
switchs
 62
256
370
-1
 48
1.0
  6
BYLAYER
100
AcDbLine
 10
27.4683999999999706
 20
56.6249000000000393
 30
0.0
 11
26.6677999999999678
 21
56.6249000000000393
 31
0.0
  0
LINE
  5
2CD
100
AcDbEntity
  8
switchs
 62
256
370
-1
 48
1.0
  6
BYLAYER
100
AcDbLine
 10
26.6677999999999678
 20
56.6249000000000393
 30
0.0
 11
26.6677999999999678
 21
57.6254000000000417
 31
0.0
  0
LINE
  5
2CE
100
AcDbEntity
  8
switchs
 62
256
370
-1
 48
1.0
  6
BYLAYER
100
AcDbLine
 10
26.6677999999999678
 20
57.6254000000000417
 30
0.0
 11
12.6682999999999701
 21
57.6254000000000417
 31
0.0
  0
LINE
  5
2CF
100
AcDbEntity
  8
switchs
 62
256
370
-1
 48
1.0
  6
BYLAYER
100
AcDbLine
 10
38.862199999999973
 20
57.6254000000000417
 30
0.0
 11
38.862199999999973
 21
56.6249000000000393
 31
0.0
  0
LINE
  5
2D0
100
AcDbEntity
  8
switchs
 62
256
370
-1
 48
1.0
  6
BYLAYER
100
AcDbLine
 10
38.862199999999973
 20
56.6249000000000393
 30
0.0
 11
38.0613999999999777
 21
56.6249000000000393
 31
0.0
  0
LINE
  5
2D1
100
AcDbEntity
  8
switchs
 62
256
370
-1
 48
1.0
  6
BYLAYER
100
AcDbLine
 10
38.0613999999999777
 20
56.6249000000000393
 30
0.0
 11
38.0613999999999777
 21
53.5243000000000393
 31
0.0
  0
LINE
  5
2D2
100
AcDbEntity
  8
switchs
 62
256
370
-1
 48
1.0
  6
BYLAYER
100
AcDbLine
 10
38.0613999999999777
 20
53.5243000000000393
 30
0.0
 11
38.862199999999973
 21
53.5243000000000393
 31
0.0
  0
LINE
  5
2D3
100
AcDbEntity
  8
switchs
 62
256
370
-1
 48
1.0
  6
BYLAYER
100
AcDbLine
 10
38.862199999999973
 20
53.5243000000000393
 30
0.0
 11
38.862199999999973
 21
47.725700000000046
 31
0.0
  0
LINE
  5
2D4
100
AcDbEntity
  8
switchs
 62
256
370
-1
 48
1.0
  6
BYLAYER
100
AcDbLine
 10
38.862199999999973
 20
47.725700000000046
 30
0.0
 11
38.0613999999999777
 21
47.725700000000046
 31
0.0
  0
LINE
  5
2D5
100
AcDbEntity
  8
switchs
 62
256
370
-1
 48
1.0
  6
BYLAYER
100
AcDbLine
 10
38.0613999999999777
 20
47.725700000000046
 30
0.0
 11
38.0613999999999777
 21
44.6251000000000317
 31
0.0
  0
LINE
  5
2D6
100
AcDbEntity
  8
switchs
 62
256
370
-1
 48
1.0
  6
BYLAYER
100
AcDbLine
 10
38.0613999999999777
 20
44.6251000000000317
 30
0.0
 11
38.862199999999973
 21
44.6251000000000317
 31
0.0
  0
LINE
  5
2D7
100
AcDbEntity
  8
switchs
 62
256
370
-1
 48
1.0
  6
BYLAYER
100
AcDbLine
 10
38.862199999999973
 20
44.6251000000000317
 30
0.0
 11
38.862199999999973
 21
43.6247000000000469
 31
0.0
  0
LINE
  5
2D8
100
AcDbEntity
  8
switchs
 62
256
370
-1
 48
1.0
  6
BYLAYER
100
AcDbLine
 10
38.862199999999973
 20
43.6247000000000469
 30
0.0
 11
52.8613999999999749
 21
43.6247000000000469
 31
0.0
  0
LINE
  5
2D9
100
AcDbEntity
  8
switchs
 62
256
370
-1
 48
1.0
  6
BYLAYER
100
AcDbLine
 10
52.8613999999999749
 20
43.6247000000000469
 30
0.0
 11
52.8613999999999749
 21
44.6251000000000317
 31
0.0
  0
LINE
  5
2DA
100
AcDbEntity
  8
switchs
 62
256
370
-1
 48
1.0
  6
BYLAYER
100
AcDbLine
 10
52.8613999999999749
 20
44.6251000000000317
 30
0.0
 11
53.6621999999999701
 21
44.6251000000000317
 31
0.0
  0
LINE
  5
2DB
100
AcDbEntity
  8
switchs
 62
256
370
-1
 48
1.0
  6
BYLAYER
100
AcDbLine
 10
53.6621999999999701
 20
44.6251000000000317
 30
0.0
 11
53.6621999999999701
 21
47.725700000000046
 31
0.0
  0
LINE
  5
2DC
100
AcDbEntity
  8
switchs
 62
256
370
-1
 48
1.0
  6
BYLAYER
100
AcDbLine
 10
53.6621999999999701
 20
47.725700000000046
 30
0.0
 11
52.8613999999999749
 21
47.725700000000046
 31
0.0
  0
LINE
  5
2DD
100
AcDbEntity
  8
switchs
 62
256
370
-1
 48
1.0
  6
BYLAYER
100
AcDbLine
 10
52.8613999999999749
 20
47.725700000000046
 30
0.0
 11
52.8613999999999749
 21
53.5243000000000393
 31
0.0
  0
LINE
  5
2DE
100
AcDbEntity
  8
switchs
 62
256
370
-1
 48
1.0
  6
BYLAYER
100
AcDbLine
 10
52.8613999999999749
 20
53.5243000000000393
 30
0.0
 11
53.6621999999999701
 21
53.5243000000000393
 31
0.0
  0
LINE
  5
2DF
100
AcDbEntity
  8
switchs
 62
256
370
-1
 48
1.0
  6
BYLAYER
100
AcDbLine
 10
53.6621999999999701
 20
53.5243000000000393
 30
0.0
 11
53.6621999999999701
 21
56.6249000000000393
 31
0.0
  0
LINE
  5
2E0
100
AcDbEntity
  8
switchs
 62
256
370
-1
 48
1.0
  6
BYLAYER
100
AcDbLine
 10
53.6621999999999701
 20
56.6249000000000393
 30
0.0
 11
52.8613999999999749
 21
56.6249000000000393
 31
0.0
  0
LINE
  5
2E1
100
AcDbEntity
  8
switchs
 62
256
370
-1
 48
1.0
  6
BYLAYER
100
AcDbLine
 10
52.8613999999999749
 20
56.6249000000000393
 30
0.0
 11
52.8613999999999749
 21
57.6254000000000417
 31
0.0
  0
LINE
  5
2E2
100
AcDbEntity
  8
switchs
 62
256
370
-1
 48
1.0
  6
BYLAYER
100
AcDbLine
 10
52.8613999999999749
 20
57.6254000000000417
 30
0.0
 11
38.862199999999973
 21
57.6254000000000417
 31
0.0
  0
LINE
  5
2E3
100
AcDbEntity
  8
switchs
 62
256
370
-1
 48
1.0
  6
BYLAYER
100
AcDbLine
 10
57.9121999999999701
 20
57.6254000000000417
 30
0.0
 11
57.9121999999999701
 21
56.6249000000000393
 31
0.0
  0
LINE
  5
2E4
100
AcDbEntity
  8
switchs
 62
256
370
-1
 48
1.0
  6
BYLAYER
100
AcDbLine
 10
57.9121999999999701
 20
56.6249000000000393
 30
0.0
 11
57.1113999999999749
 21
56.6249000000000393
 31
0.0
  0
LINE
  5
2E5
100
AcDbEntity
  8
switchs
 62
256
370
-1
 48
1.0
  6
BYLAYER
100
AcDbLine
 10
57.1113999999999749
 20
56.6249000000000393
 30
0.0
 11
57.1113999999999749
 21
53.5243000000000393
 31
0.0
  0
LINE
  5
2E6
100
AcDbEntity
  8
switchs
 62
256
370
-1
 48
1.0
  6
BYLAYER
100
AcDbLine
 10
57.1113999999999749
 20
53.5243000000000393
 30
0.0
 11
57.9121999999999701
 21
53.5243000000000393
 31
0.0
  0
LINE
  5
2E7
100
AcDbEntity
  8
switchs
 62
256
370
-1
 48
1.0
  6
BYLAYER
100
AcDbLine
 10
57.9121999999999701
 20
53.5243000000000393
 30
0.0
 11
57.9121999999999701
 21
47.725700000000046
 31
0.0
  0
LINE
  5
2E8
100
AcDbEntity
  8
switchs
 62
256
370
-1
 48
1.0
  6
BYLAYER
100
AcDbLine
 10
57.9121999999999701
 20
47.725700000000046
 30
0.0
 11
57.1113999999999749
 21
47.725700000000046
 31
0.0
  0
LINE
  5
2E9
100
AcDbEntity
  8
switchs
 62
256
370
-1
 48
1.0
  6
BYLAYER
100
AcDbLine
 10
57.1113999999999749
 20
47.725700000000046
 30
0.0
 11
57.1113999999999749
 21
44.6251000000000317
 31
0.0
  0
LINE
  5
2EA
100
AcDbEntity
  8
switchs
 62
256
370
-1
 48
1.0
  6
BYLAYER
100
AcDbLine
 10
57.1113999999999749
 20
44.6251000000000317
 30
0.0
 11
57.9121999999999701
 21
44.6251000000000317
 31
0.0
  0
LINE
  5
2EB
100
AcDbEntity
  8
switchs
 62
256
370
-1
 48
1.0
  6
BYLAYER
100
AcDbLine
 10
57.9121999999999701
 20
44.6251000000000317
 30
0.0
 11
57.9121999999999701
 21
43.6247000000000469
 31
0.0
  0
LINE
  5
2EC
100
AcDbEntity
  8
switchs
 62
256
370
-1
 48
1.0
  6
BYLAYER
100
AcDbLine
 10
57.9121999999999701
 20
43.6247000000000469
 30
0.0
 11
71.911399999999972
 21
43.6247000000000469
 31
0.0
  0
LINE
  5
2ED
100
AcDbEntity
  8
switchs
 62
256
370
-1
 48
1.0
  6
BYLAYER
100
AcDbLine
 10
71.911399999999972
 20
43.6247000000000469
 30
0.0
 11
71.911399999999972
 21
44.6251000000000317
 31
0.0
  0
LINE
  5
2EE
100
AcDbEntity
  8
switchs
 62
256
370
-1
 48
1.0
  6
BYLAYER
100
AcDbLine
 10
71.911399999999972
 20
44.6251000000000317
 30
0.0
 11
72.7121999999999673
 21
44.6251000000000317
 31
0.0
  0
LINE
  5
2EF
100
AcDbEntity
  8
switchs
 62
256
370
-1
 48
1.0
  6
BYLAYER
100
AcDbLine
 10
72.7121999999999673
 20
44.6251000000000317
 30
0.0
 11
72.7121999999999673
 21
47.725700000000046
 31
0.0
  0
LINE
  5
2F0
100
AcDbEntity
  8
switchs
 62
256
370
-1
 48
1.0
  6
BYLAYER
100
AcDbLine
 10
72.7121999999999673
 20
47.725700000000046
 30
0.0
 11
71.911399999999972
 21
47.725700000000046
 31
0.0
  0
LINE
  5
2F1
100
AcDbEntity
  8
switchs
 62
256
370
-1
 48
1.0
  6
BYLAYER
100
AcDbLine
 10
71.911399999999972
 20
47.725700000000046
 30
0.0
 11
71.911399999999972
 21
53.5243000000000393
 31
0.0
  0
LINE
  5
2F2
100
AcDbEntity
  8
switchs
 62
256
370
-1
 48
1.0
  6
BYLAYER
100
AcDbLine
 10
71.911399999999972
 20
53.5243000000000393
 30
0.0
 11
72.7121999999999673
 21
53.5243000000000393
 31
0.0
  0
LINE
  5
2F3
100
AcDbEntity
  8
switchs
 62
256
370
-1
 48
1.0
  6
BYLAYER
100
AcDbLine
 10
72.7121999999999673
 20
53.5243000000000393
 30
0.0
 11
72.7121999999999673
 21
56.6249000000000393
 31
0.0
  0
LINE
  5
2F4
100
AcDbEntity
  8
switchs
 62
256
370
-1
 48
1.0
  6
BYLAYER
100
AcDbLine
 10
72.7121999999999673
 20
56.6249000000000393
 30
0.0
 11
71.911399999999972
 21
56.6249000000000393
 31
0.0
  0
LINE
  5
2F5
100
AcDbEntity
  8
switchs
 62
256
370
-1
 48
1.0
  6
BYLAYER
100
AcDbLine
 10
71.911399999999972
 20
56.6249000000000393
 30
0.0
 11
71.911399999999972
 21
57.6254000000000417
 31
0.0
  0
LINE
  5
2F6
100
AcDbEntity
  8
switchs
 62
256
370
-1
 48
1.0
  6
BYLAYER
100
AcDbLine
 10
71.911399999999972
 20
57.6254000000000417
 30
0.0
 11
57.9121999999999701
 21
57.6254000000000417
 31
0.0
  0
LINE
  5
2F7
100
AcDbEntity
  8
switchs
 62
256
370
-1
 48
1.0
  6
BYLAYER
100
AcDbLine
 10
76.9621999999999673
 20
57.6254000000000417
 30
0.0
 11
76.9621999999999673
 21
56.6249000000000393
 31
0.0
  0
LINE
  5
2F8
100
AcDbEntity
  8
switchs
 62
256
370
-1
 48
1.0
  6
BYLAYER
100
AcDbLine
 10
76.9621999999999673
 20
56.6249000000000393
 30
0.0
 11
76.161399999999972
 21
56.6249000000000393
 31
0.0
  0
LINE
  5
2F9
100
AcDbEntity
  8
switchs
 62
256
370
-1
 48
1.0
  6
BYLAYER
100
AcDbLine
 10
76.161399999999972
 20
56.6249000000000393
 30
0.0
 11
76.161399999999972
 21
53.5243000000000393
 31
0.0
  0
LINE
  5
2FA
100
AcDbEntity
  8
switchs
 62
256
370
-1
 48
1.0
  6
BYLAYER
100
AcDbLine
 10
76.161399999999972
 20
53.5243000000000393
 30
0.0
 11
76.9621999999999673
 21
53.5243000000000393
 31
0.0
  0
LINE
  5
2FB
100
AcDbEntity
  8
switchs
 62
256
370
-1
 48
1.0
  6
BYLAYER
100
AcDbLine
 10
76.9621999999999673
 20
53.5243000000000393
 30
0.0
 11
76.9621999999999673
 21
47.725700000000046
 31
0.0
  0
LINE
  5
2FC
100
AcDbEntity
  8
switchs
 62
256
370
-1
 48
1.0
  6
BYLAYER
100
AcDbLine
 10
76.9621999999999673
 20
47.725700000000046
 30
0.0
 11
76.161399999999972
 21
47.725700000000046
 31
0.0
  0
LINE
  5
2FD
100
AcDbEntity
  8
switchs
 62
256
370
-1
 48
1.0
  6
BYLAYER
100
AcDbLine
 10
76.161399999999972
 20
47.725700000000046
 30
0.0
 11
76.161399999999972
 21
44.6251000000000317
 31
0.0
  0
LINE
  5
2FE
100
AcDbEntity
  8
switchs
 62
256
370
-1
 48
1.0
  6
BYLAYER
100
AcDbLine
 10
76.161399999999972
 20
44.6251000000000317
 30
0.0
 11
76.9621999999999673
 21
44.6251000000000317
 31
0.0
  0
LINE
  5
2FF
100
AcDbEntity
  8
switchs
 62
256
370
-1
 48
1.0
  6
BYLAYER
100
AcDbLine
 10
76.9621999999999673
 20
44.6251000000000317
 30
0.0
 11
76.9621999999999673
 21
43.6247000000000469
 31
0.0
  0
LINE
  5
300
100
AcDbEntity
  8
switchs
 62
256
370
-1
 48
1.0
  6
BYLAYER
100
AcDbLine
 10
76.9621999999999673
 20
43.6247000000000469
 30
0.0
 11
90.9613999999999692
 21
43.6247000000000469
 31
0.0
  0
LINE
  5
301
100
AcDbEntity
  8
switchs
 62
256
370
-1
 48
1.0
  6
BYLAYER
100
AcDbLine
 10
90.9613999999999692
 20
43.6247000000000469
 30
0.0
 11
90.9613999999999692
 21
44.6251000000000317
 31
0.0
  0
LINE
  5
302
100
AcDbEntity
  8
switchs
 62
256
370
-1
 48
1.0
  6
BYLAYER
100
AcDbLine
 10
90.9613999999999692
 20
44.6251000000000317
 30
0.0
 11
91.7621999999999787
 21
44.6251000000000317
 31
0.0
  0
LINE
  5
303
100
AcDbEntity
  8
switchs
 62
256
370
-1
 48
1.0
  6
BYLAYER
100
AcDbLine
 10
91.7621999999999787
 20
44.6251000000000317
 30
0.0
 11
91.7621999999999787
 21
47.725700000000046
 31
0.0
  0
LINE
  5
304
100
AcDbEntity
  8
switchs
 62
256
370
-1
 48
1.0
  6
BYLAYER
100
AcDbLine
 10
91.7621999999999787
 20
47.725700000000046
 30
0.0
 11
90.9613999999999692
 21
47.725700000000046
 31
0.0
  0
LINE
  5
305
100
AcDbEntity
  8
switchs
 62
256
370
-1
 48
1.0
  6
BYLAYER
100
AcDbLine
 10
90.9613999999999692
 20
47.725700000000046
 30
0.0
 11
90.9613999999999692
 21
53.5243000000000393
 31
0.0
  0
LINE
  5
306
100
AcDbEntity
  8
switchs
 62
256
370
-1
 48
1.0
  6
BYLAYER
100
AcDbLine
 10
90.9613999999999692
 20
53.5243000000000393
 30
0.0
 11
91.7621999999999787
 21
53.5243000000000393
 31
0.0
  0
LINE
  5
307
100
AcDbEntity
  8
switchs
 62
256
370
-1
 48
1.0
  6
BYLAYER
100
AcDbLine
 10
91.7621999999999787
 20
53.5243000000000393
 30
0.0
 11
91.7621999999999787
 21
56.6249000000000393
 31
0.0
  0
LINE
  5
308
100
AcDbEntity
  8
switchs
 62
256
370
-1
 48
1.0
  6
BYLAYER
100
AcDbLine
 10
91.7621999999999787
 20
56.6249000000000393
 30
0.0
 11
90.9613999999999692
 21
56.6249000000000393
 31
0.0
  0
LINE
  5
309
100
AcDbEntity
  8
switchs
 62
256
370
-1
 48
1.0
  6
BYLAYER
100
AcDbLine
 10
90.9613999999999692
 20
56.6249000000000393
 30
0.0
 11
90.9613999999999692
 21
57.6254000000000417
 31
0.0
  0
LINE
  5
30A
100
AcDbEntity
  8
switchs
 62
256
370
-1
 48
1.0
  6
BYLAYER
100
AcDbLine
 10
90.9613999999999692
 20
57.6254000000000417
 30
0.0
 11
76.9621999999999673
 21
57.6254000000000417
 31
0.0
  0
LINE
  5
30B
100
AcDbEntity
  8
switchs
 62
256
370
-1
 48
1.0
  6
BYLAYER
100
AcDbLine
 10
96.0121999999999787
 20
57.6254000000000417
 30
0.0
 11
96.0121999999999787
 21
56.6249000000000393
 31
0.0
  0
LINE
  5
30C
100
AcDbEntity
  8
switchs
 62
256
370
-1
 48
1.0
  6
BYLAYER
100
AcDbLine
 10
96.0121999999999787
 20
56.6249000000000393
 30
0.0
 11
95.2113999999999692
 21
56.6249000000000393
 31
0.0
  0
LINE
  5
30D
100
AcDbEntity
  8
switchs
 62
256
370
-1
 48
1.0
  6
BYLAYER
100
AcDbLine
 10
95.2113999999999692
 20
56.6249000000000393
 30
0.0
 11
95.2113999999999692
 21
53.5243000000000393
 31
0.0
  0
LINE
  5
30E
100
AcDbEntity
  8
switchs
 62
256
370
-1
 48
1.0
  6
BYLAYER
100
AcDbLine
 10
95.2113999999999692
 20
53.5243000000000393
 30
0.0
 11
96.0121999999999787
 21
53.5243000000000393
 31
0.0
  0
LINE
  5
30F
100
AcDbEntity
  8
switchs
 62
256
370
-1
 48
1.0
  6
BYLAYER
100
AcDbLine
 10
96.0121999999999787
 20
53.5243000000000393
 30
0.0
 11
96.0121999999999787
 21
47.725700000000046
 31
0.0
  0
LINE
  5
310
100
AcDbEntity
  8
switchs
 62
256
370
-1
 48
1.0
  6
BYLAYER
100
AcDbLine
 10
96.0121999999999787
 20
47.725700000000046
 30
0.0
 11
95.2113999999999692
 21
47.725700000000046
 31
0.0
  0
LINE
  5
311
100
AcDbEntity
  8
switchs
 62
256
370
-1
 48
1.0
  6
BYLAYER
100
AcDbLine
 10
95.2113999999999692
 20
47.725700000000046
 30
0.0
 11
95.2113999999999692
 21
44.6251000000000317
 31
0.0
  0
LINE
  5
312
100
AcDbEntity
  8
switchs
 62
256
370
-1
 48
1.0
  6
BYLAYER
100
AcDbLine
 10
95.2113999999999692
 20
44.6251000000000317
 30
0.0
 11
96.0121999999999787
 21
44.6251000000000317
 31
0.0
  0
LINE
  5
313
100
AcDbEntity
  8
switchs
 62
256
370
-1
 48
1.0
  6
BYLAYER
100
AcDbLine
 10
96.0121999999999787
 20
44.6251000000000317
 30
0.0
 11
96.0121999999999787
 21
43.6247000000000469
 31
0.0
  0
LINE
  5
314
100
AcDbEntity
  8
switchs
 62
256
370
-1
 48
1.0
  6
BYLAYER
100
AcDbLine
 10
96.0121999999999787
 20
43.6247000000000469
 30
0.0
 11
110.0112999999999772
 21
43.6247000000000469
 31
0.0
  0
LINE
  5
315
100
AcDbEntity
  8
switchs
 62
256
370
-1
 48
1.0
  6
BYLAYER
100
AcDbLine
 10
110.0112999999999772
 20
43.6247000000000469
 30
0.0
 11
110.0112999999999772
 21
44.6251000000000317
 31
0.0
  0
LINE
  5
316
100
AcDbEntity
  8
switchs
 62
256
370
-1
 48
1.0
  6
BYLAYER
100
AcDbLine
 10
110.0112999999999772
 20
44.6251000000000317
 30
0.0
 11
110.8122999999999791
 21
44.6251000000000317
 31
0.0
  0
LINE
  5
317
100
AcDbEntity
  8
switchs
 62
256
370
-1
 48
1.0
  6
BYLAYER
100
AcDbLine
 10
110.8122999999999791
 20
44.6251000000000317
 30
0.0
 11
110.8122999999999791
 21
47.725700000000046
 31
0.0
  0
LINE
  5
318
100
AcDbEntity
  8
switchs
 62
256
370
-1
 48
1.0
  6
BYLAYER
100
AcDbLine
 10
110.8122999999999791
 20
47.725700000000046
 30
0.0
 11
110.0112999999999772
 21
47.725700000000046
 31
0.0
  0
LINE
  5
319
100
AcDbEntity
  8
switchs
 62
256
370
-1
 48
1.0
  6
BYLAYER
100
AcDbLine
 10
110.0112999999999772
 20
47.725700000000046
 30
0.0
 11
110.0112999999999772
 21
53.5243000000000393
 31
0.0
  0
LINE
  5
31A
100
AcDbEntity
  8
switchs
 62
256
370
-1
 48
1.0
  6
BYLAYER
100
AcDbLine
 10
110.0112999999999772
 20
53.5243000000000393
 30
0.0
 11
110.8122999999999791
 21
53.5243000000000393
 31
0.0
  0
LINE
  5
31B
100
AcDbEntity
  8
switchs
 62
256
370
-1
 48
1.0
  6
BYLAYER
100
AcDbLine
 10
110.8122999999999791
 20
53.5243000000000393
 30
0.0
 11
110.8122999999999791
 21
56.6249000000000393
 31
0.0
  0
LINE
  5
31C
100
AcDbEntity
  8
switchs
 62
256
370
-1
 48
1.0
  6
BYLAYER
100
AcDbLine
 10
110.8122999999999791
 20
56.6249000000000393
 30
0.0
 11
110.0112999999999772
 21
56.6249000000000393
 31
0.0
  0
LINE
  5
31D
100
AcDbEntity
  8
switchs
 62
256
370
-1
 48
1.0
  6
BYLAYER
100
AcDbLine
 10
110.0112999999999772
 20
56.6249000000000393
 30
0.0
 11
110.0112999999999772
 21
57.6254000000000417
 31
0.0
  0
LINE
  5
31E
100
AcDbEntity
  8
switchs
 62
256
370
-1
 48
1.0
  6
BYLAYER
100
AcDbLine
 10
110.0112999999999772
 20
57.6254000000000417
 30
0.0
 11
96.0121999999999787
 21
57.6254000000000417
 31
0.0
  0
LINE
  5
31F
100
AcDbEntity
  8
switchs
 62
256
370
-1
 48
1.0
  6
BYLAYER
100
AcDbLine
 10
115.0622999999999791
 20
57.6254000000000417
 30
0.0
 11
115.0622999999999791
 21
56.6249000000000393
 31
0.0
  0
LINE
  5
320
100
AcDbEntity
  8
switchs
 62
256
370
-1
 48
1.0
  6
BYLAYER
100
AcDbLine
 10
115.0622999999999791
 20
56.6249000000000393
 30
0.0
 11
114.2612999999999772
 21
56.6249000000000393
 31
0.0
  0
LINE
  5
321
100
AcDbEntity
  8
switchs
 62
256
370
-1
 48
1.0
  6
BYLAYER
100
AcDbLine
 10
114.2612999999999772
 20
56.6249000000000393
 30
0.0
 11
114.2612999999999772
 21
53.5243000000000393
 31
0.0
  0
LINE
  5
322
100
AcDbEntity
  8
switchs
 62
256
370
-1
 48
1.0
  6
BYLAYER
100
AcDbLine
 10
114.2612999999999772
 20
53.5243000000000393
 30
0.0
 11
115.0622999999999791
 21
53.5243000000000393
 31
0.0
  0
LINE
  5
323
100
AcDbEntity
  8
switchs
 62
256
370
-1
 48
1.0
  6
BYLAYER
100
AcDbLine
 10
115.0622999999999791
 20
53.5243000000000393
 30
0.0
 11
115.0622999999999791
 21
47.725700000000046
 31
0.0
  0
LINE
  5
324
100
AcDbEntity
  8
switchs
 62
256
370
-1
 48
1.0
  6
BYLAYER
100
AcDbLine
 10
115.0622999999999791
 20
47.725700000000046
 30
0.0
 11
114.2612999999999772
 21
47.725700000000046
 31
0.0
  0
LINE
  5
325
100
AcDbEntity
  8
switchs
 62
256
370
-1
 48
1.0
  6
BYLAYER
100
AcDbLine
 10
114.2612999999999772
 20
47.725700000000046
 30
0.0
 11
114.2612999999999772
 21
44.6251000000000317
 31
0.0
  0
LINE
  5
326
100
AcDbEntity
  8
switchs
 62
256
370
-1
 48
1.0
  6
BYLAYER
100
AcDbLine
 10
114.2612999999999772
 20
44.6251000000000317
 30
0.0
 11
115.0622999999999791
 21
44.6251000000000317
 31
0.0
  0
LINE
  5
327
100
AcDbEntity
  8
switchs
 62
256
370
-1
 48
1.0
  6
BYLAYER
100
AcDbLine
 10
115.0622999999999791
 20
44.6251000000000317
 30
0.0
 11
115.0622999999999791
 21
43.6247000000000469
 31
0.0
  0
LINE
  5
328
100
AcDbEntity
  8
switchs
 62
256
370
-1
 48
1.0
  6
BYLAYER
100
AcDbLine
 10
115.0622999999999791
 20
43.6247000000000469
 30
0.0
 11
129.0612999999999602
 21
43.6247000000000469
 31
0.0
  0
LINE
  5
329
100
AcDbEntity
  8
switchs
 62
256
370
-1
 48
1.0
  6
BYLAYER
100
AcDbLine
 10
129.0612999999999602
 20
43.6247000000000469
 30
0.0
 11
129.0612999999999602
 21
44.6251000000000317
 31
0.0
  0
LINE
  5
32A
100
AcDbEntity
  8
switchs
 62
256
370
-1
 48
1.0
  6
BYLAYER
100
AcDbLine
 10
129.0612999999999602
 20
44.6251000000000317
 30
0.0
 11
129.8622999999999479
 21
44.6251000000000317
 31
0.0
  0
LINE
  5
32B
100
AcDbEntity
  8
switchs
 62
256
370
-1
 48
1.0
  6
BYLAYER
100
AcDbLine
 10
129.8622999999999479
 20
44.6251000000000317
 30
0.0
 11
129.8622999999999479
 21
47.725700000000046
 31
0.0
  0
LINE
  5
32C
100
AcDbEntity
  8
switchs
 62
256
370
-1
 48
1.0
  6
BYLAYER
100
AcDbLine
 10
129.8622999999999479
 20
47.725700000000046
 30
0.0
 11
129.0612999999999602
 21
47.725700000000046
 31
0.0
  0
LINE
  5
32D
100
AcDbEntity
  8
switchs
 62
256
370
-1
 48
1.0
  6
BYLAYER
100
AcDbLine
 10
129.0612999999999602
 20
47.725700000000046
 30
0.0
 11
129.0612999999999602
 21
53.5243000000000393
 31
0.0
  0
LINE
  5
32E
100
AcDbEntity
  8
switchs
 62
256
370
-1
 48
1.0
  6
BYLAYER
100
AcDbLine
 10
129.0612999999999602
 20
53.5243000000000393
 30
0.0
 11
129.8622999999999479
 21
53.5243000000000393
 31
0.0
  0
LINE
  5
32F
100
AcDbEntity
  8
switchs
 62
256
370
-1
 48
1.0
  6
BYLAYER
100
AcDbLine
 10
129.8622999999999479
 20
53.5243000000000393
 30
0.0
 11
129.8622999999999479
 21
56.6249000000000393
 31
0.0
  0
LINE
  5
330
100
AcDbEntity
  8
switchs
 62
256
370
-1
 48
1.0
  6
BYLAYER
100
AcDbLine
 10
129.8622999999999479
 20
56.6249000000000393
 30
0.0
 11
129.0612999999999602
 21
56.6249000000000393
 31
0.0
  0
LINE
  5
331
100
AcDbEntity
  8
switchs
 62
256
370
-1
 48
1.0
  6
BYLAYER
100
AcDbLine
 10
129.0612999999999602
 20
56.6249000000000393
 30
0.0
 11
129.0612999999999602
 21
57.6254000000000417
 31
0.0
  0
LINE
  5
332
100
AcDbEntity
  8
switchs
 62
256
370
-1
 48
1.0
  6
BYLAYER
100
AcDbLine
 10
129.0612999999999602
 20
57.6254000000000417
 30
0.0
 11
115.0622999999999791
 21
57.6254000000000417
 31
0.0
  0
LINE
  5
333
100
AcDbEntity
  8
switchs
 62
256
370
-1
 48
1.0
  6
BYLAYER
100
AcDbLine
 10
134.1122999999999479
 20
57.6254000000000417
 30
0.0
 11
134.1122999999999479
 21
56.6249000000000393
 31
0.0
  0
LINE
  5
334
100
AcDbEntity
  8
switchs
 62
256
370
-1
 48
1.0
  6
BYLAYER
100
AcDbLine
 10
134.1122999999999479
 20
56.6249000000000393
 30
0.0
 11
133.3112999999999602
 21
56.6249000000000393
 31
0.0
  0
LINE
  5
335
100
AcDbEntity
  8
switchs
 62
256
370
-1
 48
1.0
  6
BYLAYER
100
AcDbLine
 10
133.3112999999999602
 20
56.6249000000000393
 30
0.0
 11
133.3112999999999602
 21
53.5243000000000393
 31
0.0
  0
LINE
  5
336
100
AcDbEntity
  8
switchs
 62
256
370
-1
 48
1.0
  6
BYLAYER
100
AcDbLine
 10
133.3112999999999602
 20
53.5243000000000393
 30
0.0
 11
134.1122999999999479
 21
53.5243000000000393
 31
0.0
  0
LINE
  5
337
100
AcDbEntity
  8
switchs
 62
256
370
-1
 48
1.0
  6
BYLAYER
100
AcDbLine
 10
134.1122999999999479
 20
53.5243000000000393
 30
0.0
 11
134.1122999999999479
 21
47.725700000000046
 31
0.0
  0
LINE
  5
338
100
AcDbEntity
  8
switchs
 62
256
370
-1
 48
1.0
  6
BYLAYER
100
AcDbLine
 10
134.1122999999999479
 20
47.725700000000046
 30
0.0
 11
133.3112999999999602
 21
47.725700000000046
 31
0.0
  0
LINE
  5
339
100
AcDbEntity
  8
switchs
 62
256
370
-1
 48
1.0
  6
BYLAYER
100
AcDbLine
 10
133.3112999999999602
 20
47.725700000000046
 30
0.0
 11
133.3112999999999602
 21
44.6251000000000317
 31
0.0
  0
LINE
  5
33A
100
AcDbEntity
  8
switchs
 62
256
370
-1
 48
1.0
  6
BYLAYER
100
AcDbLine
 10
133.3112999999999602
 20
44.6251000000000317
 30
0.0
 11
134.1122999999999479
 21
44.6251000000000317
 31
0.0
  0
LINE
  5
33B
100
AcDbEntity
  8
switchs
 62
256
370
-1
 48
1.0
  6
BYLAYER
100
AcDbLine
 10
134.1122999999999479
 20
44.6251000000000317
 30
0.0
 11
134.1122999999999479
 21
43.6247000000000469
 31
0.0
  0
LINE
  5
33C
100
AcDbEntity
  8
switchs
 62
256
370
-1
 48
1.0
  6
BYLAYER
100
AcDbLine
 10
134.1122999999999479
 20
43.6247000000000469
 30
0.0
 11
148.1112999999999715
 21
43.6247000000000469
 31
0.0
  0
LINE
  5
33D
100
AcDbEntity
  8
switchs
 62
256
370
-1
 48
1.0
  6
BYLAYER
100
AcDbLine
 10
148.1112999999999715
 20
43.6247000000000469
 30
0.0
 11
148.1112999999999715
 21
44.6251000000000317
 31
0.0
  0
LINE
  5
33E
100
AcDbEntity
  8
switchs
 62
256
370
-1
 48
1.0
  6
BYLAYER
100
AcDbLine
 10
148.1112999999999715
 20
44.6251000000000317
 30
0.0
 11
148.9122999999999593
 21
44.6251000000000317
 31
0.0
  0
LINE
  5
33F
100
AcDbEntity
  8
switchs
 62
256
370
-1
 48
1.0
  6
BYLAYER
100
AcDbLine
 10
148.9122999999999593
 20
44.6251000000000317
 30
0.0
 11
148.9122999999999593
 21
47.725700000000046
 31
0.0
  0
LINE
  5
340
100
AcDbEntity
  8
switchs
 62
256
370
-1
 48
1.0
  6
BYLAYER
100
AcDbLine
 10
148.9122999999999593
 20
47.725700000000046
 30
0.0
 11
148.1112999999999715
 21
47.725700000000046
 31
0.0
  0
LINE
  5
341
100
AcDbEntity
  8
switchs
 62
256
370
-1
 48
1.0
  6
BYLAYER
100
AcDbLine
 10
148.1112999999999715
 20
47.725700000000046
 30
0.0
 11
148.1112999999999715
 21
53.5243000000000393
 31
0.0
  0
LINE
  5
342
100
AcDbEntity
  8
switchs
 62
256
370
-1
 48
1.0
  6
BYLAYER
100
AcDbLine
 10
148.1112999999999715
 20
53.5243000000000393
 30
0.0
 11
148.9122999999999593
 21
53.5243000000000393
 31
0.0
  0
LINE
  5
343
100
AcDbEntity
  8
switchs
 62
256
370
-1
 48
1.0
  6
BYLAYER
100
AcDbLine
 10
148.9122999999999593
 20
53.5243000000000393
 30
0.0
 11
148.9122999999999593
 21
56.6249000000000393
 31
0.0
  0
LINE
  5
344
100
AcDbEntity
  8
switchs
 62
256
370
-1
 48
1.0
  6
BYLAYER
100
AcDbLine
 10
148.9122999999999593
 20
56.6249000000000393
 30
0.0
 11
148.1112999999999715
 21
56.6249000000000393
 31
0.0
  0
LINE
  5
345
100
AcDbEntity
  8
switchs
 62
256
370
-1
 48
1.0
  6
BYLAYER
100
AcDbLine
 10
148.1112999999999715
 20
56.6249000000000393
 30
0.0
 11
148.1112999999999715
 21
57.6254000000000417
 31
0.0
  0
LINE
  5
346
100
AcDbEntity
  8
switchs
 62
256
370
-1
 48
1.0
  6
BYLAYER
100
AcDbLine
 10
148.1112999999999715
 20
57.6254000000000417
 30
0.0
 11
134.1122999999999479
 21
57.6254000000000417
 31
0.0
  0
LINE
  5
347
100
AcDbEntity
  8
switchs
 62
256
370
-1
 48
1.0
  6
BYLAYER
100
AcDbLine
 10
153.1622999999999593
 20
57.6254000000000417
 30
0.0
 11
153.1622999999999593
 21
56.6249000000000393
 31
0.0
  0
LINE
  5
348
100
AcDbEntity
  8
switchs
 62
256
370
-1
 48
1.0
  6
BYLAYER
100
AcDbLine
 10
153.1622999999999593
 20
56.6249000000000393
 30
0.0
 11
152.3612999999999715
 21
56.6249000000000393
 31
0.0
  0
LINE
  5
349
100
AcDbEntity
  8
switchs
 62
256
370
-1
 48
1.0
  6
BYLAYER
100
AcDbLine
 10
152.3612999999999715
 20
56.6249000000000393
 30
0.0
 11
152.3612999999999715
 21
53.5243000000000393
 31
0.0
  0
LINE
  5
34A
100
AcDbEntity
  8
switchs
 62
256
370
-1
 48
1.0
  6
BYLAYER
100
AcDbLine
 10
152.3612999999999715
 20
53.5243000000000393
 30
0.0
 11
153.1622999999999593
 21
53.5243000000000393
 31
0.0
  0
LINE
  5
34B
100
AcDbEntity
  8
switchs
 62
256
370
-1
 48
1.0
  6
BYLAYER
100
AcDbLine
 10
153.1622999999999593
 20
53.5243000000000393
 30
0.0
 11
153.1622999999999593
 21
47.725700000000046
 31
0.0
  0
LINE
  5
34C
100
AcDbEntity
  8
switchs
 62
256
370
-1
 48
1.0
  6
BYLAYER
100
AcDbLine
 10
153.1622999999999593
 20
47.725700000000046
 30
0.0
 11
152.3612999999999715
 21
47.725700000000046
 31
0.0
  0
LINE
  5
34D
100
AcDbEntity
  8
switchs
 62
256
370
-1
 48
1.0
  6
BYLAYER
100
AcDbLine
 10
152.3612999999999715
 20
47.725700000000046
 30
0.0
 11
152.3612999999999715
 21
44.6251000000000317
 31
0.0
  0
LINE
  5
34E
100
AcDbEntity
  8
switchs
 62
256
370
-1
 48
1.0
  6
BYLAYER
100
AcDbLine
 10
152.3612999999999715
 20
44.6251000000000317
 30
0.0
 11
153.1622999999999593
 21
44.6251000000000317
 31
0.0
  0
LINE
  5
34F
100
AcDbEntity
  8
switchs
 62
256
370
-1
 48
1.0
  6
BYLAYER
100
AcDbLine
 10
153.1622999999999593
 20
44.6251000000000317
 30
0.0
 11
153.1622999999999593
 21
43.6247000000000469
 31
0.0
  0
LINE
  5
350
100
AcDbEntity
  8
switchs
 62
256
370
-1
 48
1.0
  6
BYLAYER
100
AcDbLine
 10
153.1622999999999593
 20
43.6247000000000469
 30
0.0
 11
167.1612999999999545
 21
43.6247000000000469
 31
0.0
  0
LINE
  5
351
100
AcDbEntity
  8
switchs
 62
256
370
-1
 48
1.0
  6
BYLAYER
100
AcDbLine
 10
167.1612999999999545
 20
43.6247000000000469
 30
0.0
 11
167.1612999999999545
 21
44.6251000000000317
 31
0.0
  0
LINE
  5
352
100
AcDbEntity
  8
switchs
 62
256
370
-1
 48
1.0
  6
BYLAYER
100
AcDbLine
 10
167.1612999999999545
 20
44.6251000000000317
 30
0.0
 11
167.9622999999999706
 21
44.6251000000000317
 31
0.0
  0
LINE
  5
353
100
AcDbEntity
  8
switchs
 62
256
370
-1
 48
1.0
  6
BYLAYER
100
AcDbLine
 10
167.9622999999999706
 20
44.6251000000000317
 30
0.0
 11
167.9622999999999706
 21
47.725700000000046
 31
0.0
  0
LINE
  5
354
100
AcDbEntity
  8
switchs
 62
256
370
-1
 48
1.0
  6
BYLAYER
100
AcDbLine
 10
167.9622999999999706
 20
47.725700000000046
 30
0.0
 11
167.1612999999999545
 21
47.725700000000046
 31
0.0
  0
LINE
  5
355
100
AcDbEntity
  8
switchs
 62
256
370
-1
 48
1.0
  6
BYLAYER
100
AcDbLine
 10
167.1612999999999545
 20
47.725700000000046
 30
0.0
 11
167.1612999999999545
 21
53.5243000000000393
 31
0.0
  0
LINE
  5
356
100
AcDbEntity
  8
switchs
 62
256
370
-1
 48
1.0
  6
BYLAYER
100
AcDbLine
 10
167.1612999999999545
 20
53.5243000000000393
 30
0.0
 11
167.9622999999999706
 21
53.5243000000000393
 31
0.0
  0
LINE
  5
357
100
AcDbEntity
  8
switchs
 62
256
370
-1
 48
1.0
  6
BYLAYER
100
AcDbLine
 10
167.9622999999999706
 20
53.5243000000000393
 30
0.0
 11
167.9622999999999706
 21
56.6249000000000393
 31
0.0
  0
LINE
  5
358
100
AcDbEntity
  8
switchs
 62
256
370
-1
 48
1.0
  6
BYLAYER
100
AcDbLine
 10
167.9622999999999706
 20
56.6249000000000393
 30
0.0
 11
167.1612999999999545
 21
56.6249000000000393
 31
0.0
  0
LINE
  5
359
100
AcDbEntity
  8
switchs
 62
256
370
-1
 48
1.0
  6
BYLAYER
100
AcDbLine
 10
167.1612999999999545
 20
56.6249000000000393
 30
0.0
 11
167.1612999999999545
 21
57.6254000000000417
 31
0.0
  0
LINE
  5
35A
100
AcDbEntity
  8
switchs
 62
256
370
-1
 48
1.0
  6
BYLAYER
100
AcDbLine
 10
167.1612999999999545
 20
57.6254000000000417
 30
0.0
 11
153.1622999999999593
 21
57.6254000000000417
 31
0.0
  0
LINE
  5
35B
100
AcDbEntity
  8
switchs
 62
256
370
-1
 48
1.0
  6
BYLAYER
100
AcDbLine
 10
172.2122999999999706
 20
57.6254000000000417
 30
0.0
 11
172.2122999999999706
 21
56.6249000000000393
 31
0.0
  0
LINE
  5
35C
100
AcDbEntity
  8
switchs
 62
256
370
-1
 48
1.0
  6
BYLAYER
100
AcDbLine
 10
172.2122999999999706
 20
56.6249000000000393
 30
0.0
 11
171.4112999999999545
 21
56.6249000000000393
 31
0.0
  0
LINE
  5
35D
100
AcDbEntity
  8
switchs
 62
256
370
-1
 48
1.0
  6
BYLAYER
100
AcDbLine
 10
171.4112999999999545
 20
56.6249000000000393
 30
0.0
 11
171.4112999999999545
 21
53.5243000000000393
 31
0.0
  0
LINE
  5
35E
100
AcDbEntity
  8
switchs
 62
256
370
-1
 48
1.0
  6
BYLAYER
100
AcDbLine
 10
171.4112999999999545
 20
53.5243000000000393
 30
0.0
 11
172.2122999999999706
 21
53.5243000000000393
 31
0.0
  0
LINE
  5
35F
100
AcDbEntity
  8
switchs
 62
256
370
-1
 48
1.0
  6
BYLAYER
100
AcDbLine
 10
172.2122999999999706
 20
53.5243000000000393
 30
0.0
 11
172.2122999999999706
 21
47.725700000000046
 31
0.0
  0
LINE
  5
360
100
AcDbEntity
  8
switchs
 62
256
370
-1
 48
1.0
  6
BYLAYER
100
AcDbLine
 10
172.2122999999999706
 20
47.725700000000046
 30
0.0
 11
171.4112999999999545
 21
47.725700000000046
 31
0.0
  0
LINE
  5
361
100
AcDbEntity
  8
switchs
 62
256
370
-1
 48
1.0
  6
BYLAYER
100
AcDbLine
 10
171.4112999999999545
 20
47.725700000000046
 30
0.0
 11
171.4112999999999545
 21
44.6251000000000317
 31
0.0
  0
LINE
  5
362
100
AcDbEntity
  8
switchs
 62
256
370
-1
 48
1.0
  6
BYLAYER
100
AcDbLine
 10
171.4112999999999545
 20
44.6251000000000317
 30
0.0
 11
172.2122999999999706
 21
44.6251000000000317
 31
0.0
  0
LINE
  5
363
100
AcDbEntity
  8
switchs
 62
256
370
-1
 48
1.0
  6
BYLAYER
100
AcDbLine
 10
172.2122999999999706
 20
44.6251000000000317
 30
0.0
 11
172.2122999999999706
 21
43.6247000000000469
 31
0.0
  0
LINE
  5
364
100
AcDbEntity
  8
switchs
 62
256
370
-1
 48
1.0
  6
BYLAYER
100
AcDbLine
 10
172.2122999999999706
 20
43.6247000000000469
 30
0.0
 11
186.2112999999999658
 21
43.6247000000000469
 31
0.0
  0
LINE
  5
365
100
AcDbEntity
  8
switchs
 62
256
370
-1
 48
1.0
  6
BYLAYER
100
AcDbLine
 10
186.2112999999999658
 20
43.6247000000000469
 30
0.0
 11
186.2112999999999658
 21
44.6251000000000317
 31
0.0
  0
LINE
  5
366
100
AcDbEntity
  8
switchs
 62
256
370
-1
 48
1.0
  6
BYLAYER
100
AcDbLine
 10
186.2112999999999658
 20
44.6251000000000317
 30
0.0
 11
187.0122999999999536
 21
44.6251000000000317
 31
0.0
  0
LINE
  5
367
100
AcDbEntity
  8
switchs
 62
256
370
-1
 48
1.0
  6
BYLAYER
100
AcDbLine
 10
187.0122999999999536
 20
44.6251000000000317
 30
0.0
 11
187.0122999999999536
 21
47.725700000000046
 31
0.0
  0
LINE
  5
368
100
AcDbEntity
  8
switchs
 62
256
370
-1
 48
1.0
  6
BYLAYER
100
AcDbLine
 10
187.0122999999999536
 20
47.725700000000046
 30
0.0
 11
186.2112999999999658
 21
47.725700000000046
 31
0.0
  0
LINE
  5
369
100
AcDbEntity
  8
switchs
 62
256
370
-1
 48
1.0
  6
BYLAYER
100
AcDbLine
 10
186.2112999999999658
 20
47.725700000000046
 30
0.0
 11
186.2112999999999658
 21
53.5243000000000393
 31
0.0
  0
LINE
  5
36A
100
AcDbEntity
  8
switchs
 62
256
370
-1
 48
1.0
  6
BYLAYER
100
AcDbLine
 10
186.2112999999999658
 20
53.5243000000000393
 30
0.0
 11
187.0122999999999536
 21
53.5243000000000393
 31
0.0
  0
LINE
  5
36B
100
AcDbEntity
  8
switchs
 62
256
370
-1
 48
1.0
  6
BYLAYER
100
AcDbLine
 10
187.0122999999999536
 20
53.5243000000000393
 30
0.0
 11
187.0122999999999536
 21
56.6249000000000393
 31
0.0
  0
LINE
  5
36C
100
AcDbEntity
  8
switchs
 62
256
370
-1
 48
1.0
  6
BYLAYER
100
AcDbLine
 10
187.0122999999999536
 20
56.6249000000000393
 30
0.0
 11
186.2112999999999658
 21
56.6249000000000393
 31
0.0
  0
LINE
  5
36D
100
AcDbEntity
  8
switchs
 62
256
370
-1
 48
1.0
  6
BYLAYER
100
AcDbLine
 10
186.2112999999999658
 20
56.6249000000000393
 30
0.0
 11
186.2112999999999658
 21
57.6254000000000417
 31
0.0
  0
LINE
  5
36E
100
AcDbEntity
  8
switchs
 62
256
370
-1
 48
1.0
  6
BYLAYER
100
AcDbLine
 10
186.2112999999999658
 20
57.6254000000000417
 30
0.0
 11
172.2122999999999706
 21
57.6254000000000417
 31
0.0
  0
LINE
  5
36F
100
AcDbEntity
  8
switchs
 62
256
370
-1
 48
1.0
  6
BYLAYER
100
AcDbLine
 10
191.2622999999999536
 20
57.6254000000000417
 30
0.0
 11
191.2622999999999536
 21
56.6249000000000393
 31
0.0
  0
LINE
  5
370
100
AcDbEntity
  8
switchs
 62
256
370
-1
 48
1.0
  6
BYLAYER
100
AcDbLine
 10
191.2622999999999536
 20
56.6249000000000393
 30
0.0
 11
190.4612999999999658
 21
56.6249000000000393
 31
0.0
  0
LINE
  5
371
100
AcDbEntity
  8
switchs
 62
256
370
-1
 48
1.0
  6
BYLAYER
100
AcDbLine
 10
190.4612999999999658
 20
56.6249000000000393
 30
0.0
 11
190.4612999999999658
 21
53.5243000000000393
 31
0.0
  0
LINE
  5
372
100
AcDbEntity
  8
switchs
 62
256
370
-1
 48
1.0
  6
BYLAYER
100
AcDbLine
 10
190.4612999999999658
 20
53.5243000000000393
 30
0.0
 11
191.2622999999999536
 21
53.5243000000000393
 31
0.0
  0
LINE
  5
373
100
AcDbEntity
  8
switchs
 62
256
370
-1
 48
1.0
  6
BYLAYER
100
AcDbLine
 10
191.2622999999999536
 20
53.5243000000000393
 30
0.0
 11
191.2622999999999536
 21
47.725700000000046
 31
0.0
  0
LINE
  5
374
100
AcDbEntity
  8
switchs
 62
256
370
-1
 48
1.0
  6
BYLAYER
100
AcDbLine
 10
191.2622999999999536
 20
47.725700000000046
 30
0.0
 11
190.4612999999999658
 21
47.725700000000046
 31
0.0
  0
LINE
  5
375
100
AcDbEntity
  8
switchs
 62
256
370
-1
 48
1.0
  6
BYLAYER
100
AcDbLine
 10
190.4612999999999658
 20
47.725700000000046
 30
0.0
 11
190.4612999999999658
 21
44.6251000000000317
 31
0.0
  0
LINE
  5
376
100
AcDbEntity
  8
switchs
 62
256
370
-1
 48
1.0
  6
BYLAYER
100
AcDbLine
 10
190.4612999999999658
 20
44.6251000000000317
 30
0.0
 11
191.2622999999999536
 21
44.6251000000000317
 31
0.0
  0
LINE
  5
377
100
AcDbEntity
  8
switchs
 62
256
370
-1
 48
1.0
  6
BYLAYER
100
AcDbLine
 10
191.2622999999999536
 20
44.6251000000000317
 30
0.0
 11
191.2622999999999536
 21
43.6247000000000469
 31
0.0
  0
LINE
  5
378
100
AcDbEntity
  8
switchs
 62
256
370
-1
 48
1.0
  6
BYLAYER
100
AcDbLine
 10
191.2622999999999536
 20
43.6247000000000469
 30
0.0
 11
205.2612999999999488
 21
43.6247000000000469
 31
0.0
  0
LINE
  5
379
100
AcDbEntity
  8
switchs
 62
256
370
-1
 48
1.0
  6
BYLAYER
100
AcDbLine
 10
205.2612999999999488
 20
43.6247000000000469
 30
0.0
 11
205.2612999999999488
 21
44.6251000000000317
 31
0.0
  0
LINE
  5
37A
100
AcDbEntity
  8
switchs
 62
256
370
-1
 48
1.0
  6
BYLAYER
100
AcDbLine
 10
205.2612999999999488
 20
44.6251000000000317
 30
0.0
 11
206.0622999999999649
 21
44.6251000000000317
 31
0.0
  0
LINE
  5
37B
100
AcDbEntity
  8
switchs
 62
256
370
-1
 48
1.0
  6
BYLAYER
100
AcDbLine
 10
206.0622999999999649
 20
44.6251000000000317
 30
0.0
 11
206.0622999999999649
 21
47.725700000000046
 31
0.0
  0
LINE
  5
37C
100
AcDbEntity
  8
switchs
 62
256
370
-1
 48
1.0
  6
BYLAYER
100
AcDbLine
 10
206.0622999999999649
 20
47.725700000000046
 30
0.0
 11
205.2612999999999488
 21
47.725700000000046
 31
0.0
  0
LINE
  5
37D
100
AcDbEntity
  8
switchs
 62
256
370
-1
 48
1.0
  6
BYLAYER
100
AcDbLine
 10
205.2612999999999488
 20
47.725700000000046
 30
0.0
 11
205.2612999999999488
 21
53.5243000000000393
 31
0.0
  0
LINE
  5
37E
100
AcDbEntity
  8
switchs
 62
256
370
-1
 48
1.0
  6
BYLAYER
100
AcDbLine
 10
205.2612999999999488
 20
53.5243000000000393
 30
0.0
 11
206.0622999999999649
 21
53.5243000000000393
 31
0.0
  0
LINE
  5
37F
100
AcDbEntity
  8
switchs
 62
256
370
-1
 48
1.0
  6
BYLAYER
100
AcDbLine
 10
206.0622999999999649
 20
53.5243000000000393
 30
0.0
 11
206.0622999999999649
 21
56.6249000000000393
 31
0.0
  0
LINE
  5
380
100
AcDbEntity
  8
switchs
 62
256
370
-1
 48
1.0
  6
BYLAYER
100
AcDbLine
 10
206.0622999999999649
 20
56.6249000000000393
 30
0.0
 11
205.2612999999999488
 21
56.6249000000000393
 31
0.0
  0
LINE
  5
381
100
AcDbEntity
  8
switchs
 62
256
370
-1
 48
1.0
  6
BYLAYER
100
AcDbLine
 10
205.2612999999999488
 20
56.6249000000000393
 30
0.0
 11
205.2612999999999488
 21
57.6254000000000417
 31
0.0
  0
LINE
  5
382
100
AcDbEntity
  8
switchs
 62
256
370
-1
 48
1.0
  6
BYLAYER
100
AcDbLine
 10
205.2612999999999488
 20
57.6254000000000417
 30
0.0
 11
191.2622999999999536
 21
57.6254000000000417
 31
0.0
  0
LINE
  5
383
100
AcDbEntity
  8
switchs
 62
256
370
-1
 48
1.0
  6
BYLAYER
100
AcDbLine
 10
210.3122999999999649
 20
57.6254000000000417
 30
0.0
 11
210.3122999999999649
 21
56.6249000000000393
 31
0.0
  0
LINE
  5
384
100
AcDbEntity
  8
switchs
 62
256
370
-1
 48
1.0
  6
BYLAYER
100
AcDbLine
 10
210.3122999999999649
 20
56.6249000000000393
 30
0.0
 11
209.5112999999999488
 21
56.6249000000000393
 31
0.0
  0
LINE
  5
385
100
AcDbEntity
  8
switchs
 62
256
370
-1
 48
1.0
  6
BYLAYER
100
AcDbLine
 10
209.5112999999999488
 20
56.6249000000000393
 30
0.0
 11
209.5112999999999488
 21
53.5243000000000393
 31
0.0
  0
LINE
  5
386
100
AcDbEntity
  8
switchs
 62
256
370
-1
 48
1.0
  6
BYLAYER
100
AcDbLine
 10
209.5112999999999488
 20
53.5243000000000393
 30
0.0
 11
210.3122999999999649
 21
53.5243000000000393
 31
0.0
  0
LINE
  5
387
100
AcDbEntity
  8
switchs
 62
256
370
-1
 48
1.0
  6
BYLAYER
100
AcDbLine
 10
210.3122999999999649
 20
53.5243000000000393
 30
0.0
 11
210.3122999999999649
 21
47.725700000000046
 31
0.0
  0
LINE
  5
388
100
AcDbEntity
  8
switchs
 62
256
370
-1
 48
1.0
  6
BYLAYER
100
AcDbLine
 10
210.3122999999999649
 20
47.725700000000046
 30
0.0
 11
209.5112999999999488
 21
47.725700000000046
 31
0.0
  0
LINE
  5
389
100
AcDbEntity
  8
switchs
 62
256
370
-1
 48
1.0
  6
BYLAYER
100
AcDbLine
 10
209.5112999999999488
 20
47.725700000000046
 30
0.0
 11
209.5112999999999488
 21
44.6251000000000317
 31
0.0
  0
LINE
  5
38A
100
AcDbEntity
  8
switchs
 62
256
370
-1
 48
1.0
  6
BYLAYER
100
AcDbLine
 10
209.5112999999999488
 20
44.6251000000000317
 30
0.0
 11
210.3122999999999649
 21
44.6251000000000317
 31
0.0
  0
LINE
  5
38B
100
AcDbEntity
  8
switchs
 62
256
370
-1
 48
1.0
  6
BYLAYER
100
AcDbLine
 10
210.3122999999999649
 20
44.6251000000000317
 30
0.0
 11
210.3122999999999649
 21
43.6247000000000469
 31
0.0
  0
LINE
  5
38C
100
AcDbEntity
  8
switchs
 62
256
370
-1
 48
1.0
  6
BYLAYER
100
AcDbLine
 10
210.3122999999999649
 20
43.6247000000000469
 30
0.0
 11
224.3112999999999602
 21
43.6247000000000469
 31
0.0
  0
LINE
  5
38D
100
AcDbEntity
  8
switchs
 62
256
370
-1
 48
1.0
  6
BYLAYER
100
AcDbLine
 10
224.3112999999999602
 20
43.6247000000000469
 30
0.0
 11
224.3112999999999602
 21
44.6251000000000317
 31
0.0
  0
LINE
  5
38E
100
AcDbEntity
  8
switchs
 62
256
370
-1
 48
1.0
  6
BYLAYER
100
AcDbLine
 10
224.3112999999999602
 20
44.6251000000000317
 30
0.0
 11
225.1122999999999479
 21
44.6251000000000317
 31
0.0
  0
LINE
  5
38F
100
AcDbEntity
  8
switchs
 62
256
370
-1
 48
1.0
  6
BYLAYER
100
AcDbLine
 10
225.1122999999999479
 20
44.6251000000000317
 30
0.0
 11
225.1122999999999479
 21
47.725700000000046
 31
0.0
  0
LINE
  5
390
100
AcDbEntity
  8
switchs
 62
256
370
-1
 48
1.0
  6
BYLAYER
100
AcDbLine
 10
225.1122999999999479
 20
47.725700000000046
 30
0.0
 11
224.3112999999999602
 21
47.725700000000046
 31
0.0
  0
LINE
  5
391
100
AcDbEntity
  8
switchs
 62
256
370
-1
 48
1.0
  6
BYLAYER
100
AcDbLine
 10
224.3112999999999602
 20
47.725700000000046
 30
0.0
 11
224.3112999999999602
 21
53.5243000000000393
 31
0.0
  0
LINE
  5
392
100
AcDbEntity
  8
switchs
 62
256
370
-1
 48
1.0
  6
BYLAYER
100
AcDbLine
 10
224.3112999999999602
 20
53.5243000000000393
 30
0.0
 11
225.1122999999999479
 21
53.5243000000000393
 31
0.0
  0
LINE
  5
393
100
AcDbEntity
  8
switchs
 62
256
370
-1
 48
1.0
  6
BYLAYER
100
AcDbLine
 10
225.1122999999999479
 20
53.5243000000000393
 30
0.0
 11
225.1122999999999479
 21
56.6249000000000393
 31
0.0
  0
LINE
  5
394
100
AcDbEntity
  8
switchs
 62
256
370
-1
 48
1.0
  6
BYLAYER
100
AcDbLine
 10
225.1122999999999479
 20
56.6249000000000393
 30
0.0
 11
224.3112999999999602
 21
56.6249000000000393
 31
0.0
  0
LINE
  5
395
100
AcDbEntity
  8
switchs
 62
256
370
-1
 48
1.0
  6
BYLAYER
100
AcDbLine
 10
224.3112999999999602
 20
56.6249000000000393
 30
0.0
 11
224.3112999999999602
 21
57.6254000000000417
 31
0.0
  0
LINE
  5
396
100
AcDbEntity
  8
switchs
 62
256
370
-1
 48
1.0
  6
BYLAYER
100
AcDbLine
 10
224.3112999999999602
 20
57.6254000000000417
 30
0.0
 11
210.3122999999999649
 21
57.6254000000000417
 31
0.0
  0
LINE
  5
397
100
AcDbEntity
  8
switchs
 62
256
370
-1
 48
1.0
  6
BYLAYER
100
AcDbLine
 10
229.3622999999999479
 20
57.6254000000000417
 30
0.0
 11
229.3622999999999479
 21
56.6249000000000393
 31
0.0
  0
LINE
  5
398
100
AcDbEntity
  8
switchs
 62
256
370
-1
 48
1.0
  6
BYLAYER
100
AcDbLine
 10
229.3622999999999479
 20
56.6249000000000393
 30
0.0
 11
228.5612999999999602
 21
56.6249000000000393
 31
0.0
  0
LINE
  5
399
100
AcDbEntity
  8
switchs
 62
256
370
-1
 48
1.0
  6
BYLAYER
100
AcDbLine
 10
228.5612999999999602
 20
56.6249000000000393
 30
0.0
 11
228.5612999999999602
 21
53.5243000000000393
 31
0.0
  0
LINE
  5
39A
100
AcDbEntity
  8
switchs
 62
256
370
-1
 48
1.0
  6
BYLAYER
100
AcDbLine
 10
228.5612999999999602
 20
53.5243000000000393
 30
0.0
 11
229.3622999999999479
 21
53.5243000000000393
 31
0.0
  0
LINE
  5
39B
100
AcDbEntity
  8
switchs
 62
256
370
-1
 48
1.0
  6
BYLAYER
100
AcDbLine
 10
229.3622999999999479
 20
53.5243000000000393
 30
0.0
 11
229.3622999999999479
 21
47.725700000000046
 31
0.0
  0
LINE
  5
39C
100
AcDbEntity
  8
switchs
 62
256
370
-1
 48
1.0
  6
BYLAYER
100
AcDbLine
 10
229.3622999999999479
 20
47.725700000000046
 30
0.0
 11
228.5612999999999602
 21
47.725700000000046
 31
0.0
  0
LINE
  5
39D
100
AcDbEntity
  8
switchs
 62
256
370
-1
 48
1.0
  6
BYLAYER
100
AcDbLine
 10
228.5612999999999602
 20
47.725700000000046
 30
0.0
 11
228.5612999999999602
 21
44.6251000000000317
 31
0.0
  0
LINE
  5
39E
100
AcDbEntity
  8
switchs
 62
256
370
-1
 48
1.0
  6
BYLAYER
100
AcDbLine
 10
228.5612999999999602
 20
44.6251000000000317
 30
0.0
 11
229.3622999999999479
 21
44.6251000000000317
 31
0.0
  0
LINE
  5
39F
100
AcDbEntity
  8
switchs
 62
256
370
-1
 48
1.0
  6
BYLAYER
100
AcDbLine
 10
229.3622999999999479
 20
44.6251000000000317
 30
0.0
 11
229.3622999999999479
 21
43.6247000000000469
 31
0.0
  0
LINE
  5
3A0
100
AcDbEntity
  8
switchs
 62
256
370
-1
 48
1.0
  6
BYLAYER
100
AcDbLine
 10
229.3622999999999479
 20
43.6247000000000469
 30
0.0
 11
243.3613
 21
43.6247000000000469
 31
0.0
  0
LINE
  5
3A1
100
AcDbEntity
  8
switchs
 62
256
370
-1
 48
1.0
  6
BYLAYER
100
AcDbLine
 10
243.3613
 20
43.6247000000000469
 30
0.0
 11
243.3613
 21
44.6251000000000317
 31
0.0
  0
LINE
  5
3A2
100
AcDbEntity
  8
switchs
 62
256
370
-1
 48
1.0
  6
BYLAYER
100
AcDbLine
 10
243.3613
 20
44.6251000000000317
 30
0.0
 11
244.1622999999999308
 21
44.6251000000000317
 31
0.0
  0
LINE
  5
3A3
100
AcDbEntity
  8
switchs
 62
256
370
-1
 48
1.0
  6
BYLAYER
100
AcDbLine
 10
244.1622999999999308
 20
44.6251000000000317
 30
0.0
 11
244.1622999999999308
 21
47.725700000000046
 31
0.0
  0
LINE
  5
3A4
100
AcDbEntity
  8
switchs
 62
256
370
-1
 48
1.0
  6
BYLAYER
100
AcDbLine
 10
244.1622999999999308
 20
47.725700000000046
 30
0.0
 11
243.3613
 21
47.725700000000046
 31
0.0
  0
LINE
  5
3A5
100
AcDbEntity
  8
switchs
 62
256
370
-1
 48
1.0
  6
BYLAYER
100
AcDbLine
 10
243.3613
 20
47.725700000000046
 30
0.0
 11
243.3613
 21
53.5243000000000393
 31
0.0
  0
LINE
  5
3A6
100
AcDbEntity
  8
switchs
 62
256
370
-1
 48
1.0
  6
BYLAYER
100
AcDbLine
 10
243.3613
 20
53.5243000000000393
 30
0.0
 11
244.1622999999999308
 21
53.5243000000000393
 31
0.0
  0
LINE
  5
3A7
100
AcDbEntity
  8
switchs
 62
256
370
-1
 48
1.0
  6
BYLAYER
100
AcDbLine
 10
244.1622999999999308
 20
53.5243000000000393
 30
0.0
 11
244.1622999999999308
 21
56.6249000000000393
 31
0.0
  0
LINE
  5
3A8
100
AcDbEntity
  8
switchs
 62
256
370
-1
 48
1.0
  6
BYLAYER
100
AcDbLine
 10
244.1622999999999308
 20
56.6249000000000393
 30
0.0
 11
243.3613
 21
56.6249000000000393
 31
0.0
  0
LINE
  5
3A9
100
AcDbEntity
  8
switchs
 62
256
370
-1
 48
1.0
  6
BYLAYER
100
AcDbLine
 10
243.3613
 20
56.6249000000000393
 30
0.0
 11
243.3613
 21
57.6254000000000417
 31
0.0
  0
LINE
  5
3AA
100
AcDbEntity
  8
switchs
 62
256
370
-1
 48
1.0
  6
BYLAYER
100
AcDbLine
 10
243.3613
 20
57.6254000000000417
 30
0.0
 11
229.3622999999999479
 21
57.6254000000000417
 31
0.0
  0
LINE
  5
3AB
100
AcDbEntity
  8
switchs
 62
256
370
-1
 48
1.0
  6
BYLAYER
100
AcDbLine
 10
10.2870999999999633
 20
76.6754000000000246
 30
0.0
 11
10.2870999999999633
 21
75.6749000000000365
 31
0.0
  0
LINE
  5
3AC
100
AcDbEntity
  8
switchs
 62
256
370
-1
 48
1.0
  6
BYLAYER
100
AcDbLine
 10
10.2870999999999633
 20
75.6749000000000365
 30
0.0
 11
9.4863999999999571
 21
75.6749000000000365
 31
0.0
  0
LINE
  5
3AD
100
AcDbEntity
  8
switchs
 62
256
370
-1
 48
1.0
  6
BYLAYER
100
AcDbLine
 10
9.4863999999999571
 20
75.6749000000000365
 30
0.0
 11
9.4863999999999571
 21
72.5743000000000507
 31
0.0
  0
LINE
  5
3AE
100
AcDbEntity
  8
switchs
 62
256
370
-1
 48
1.0
  6
BYLAYER
100
AcDbLine
 10
9.4863999999999571
 20
72.5743000000000507
 30
0.0
 11
10.2870999999999633
 21
72.5743000000000507
 31
0.0
  0
LINE
  5
3AF
100
AcDbEntity
  8
switchs
 62
256
370
-1
 48
1.0
  6
BYLAYER
100
AcDbLine
 10
10.2870999999999633
 20
72.5743000000000507
 30
0.0
 11
10.2870999999999633
 21
66.7757000000000289
 31
0.0
  0
LINE
  5
3B0
100
AcDbEntity
  8
switchs
 62
256
370
-1
 48
1.0
  6
BYLAYER
100
AcDbLine
 10
10.2870999999999633
 20
66.7757000000000289
 30
0.0
 11
9.4863999999999571
 21
66.7757000000000289
 31
0.0
  0
LINE
  5
3B1
100
AcDbEntity
  8
switchs
 62
256
370
-1
 48
1.0
  6
BYLAYER
100
AcDbLine
 10
9.4863999999999571
 20
66.7757000000000289
 30
0.0
 11
9.4863999999999571
 21
63.6751000000000431
 31
0.0
  0
LINE
  5
3B2
100
AcDbEntity
  8
switchs
 62
256
370
-1
 48
1.0
  6
BYLAYER
100
AcDbLine
 10
9.4863999999999571
 20
63.6751000000000431
 30
0.0
 11
10.2870999999999633
 21
63.6751000000000431
 31
0.0
  0
LINE
  5
3B3
100
AcDbEntity
  8
switchs
 62
256
370
-1
 48
1.0
  6
BYLAYER
100
AcDbLine
 10
10.2870999999999633
 20
63.6751000000000431
 30
0.0
 11
10.2870999999999633
 21
62.6747000000000298
 31
0.0
  0
LINE
  5
3B4
100
AcDbEntity
  8
switchs
 62
256
370
-1
 48
1.0
  6
BYLAYER
100
AcDbLine
 10
10.2870999999999633
 20
62.6747000000000298
 30
0.0
 11
24.2864999999999718
 21
62.6747000000000298
 31
0.0
  0
LINE
  5
3B5
100
AcDbEntity
  8
switchs
 62
256
370
-1
 48
1.0
  6
BYLAYER
100
AcDbLine
 10
24.2864999999999718
 20
62.6747000000000298
 30
0.0
 11
24.2864999999999718
 21
63.6751000000000431
 31
0.0
  0
LINE
  5
3B6
100
AcDbEntity
  8
switchs
 62
256
370
-1
 48
1.0
  6
BYLAYER
100
AcDbLine
 10
24.2864999999999718
 20
63.6751000000000431
 30
0.0
 11
25.087199999999978
 21
63.6751000000000431
 31
0.0
  0
LINE
  5
3B7
100
AcDbEntity
  8
switchs
 62
256
370
-1
 48
1.0
  6
BYLAYER
100
AcDbLine
 10
25.087199999999978
 20
63.6751000000000431
 30
0.0
 11
25.087199999999978
 21
66.7757000000000289
 31
0.0
  0
LINE
  5
3B8
100
AcDbEntity
  8
switchs
 62
256
370
-1
 48
1.0
  6
BYLAYER
100
AcDbLine
 10
25.087199999999978
 20
66.7757000000000289
 30
0.0
 11
24.2864999999999718
 21
66.7757000000000289
 31
0.0
  0
LINE
  5
3B9
100
AcDbEntity
  8
switchs
 62
256
370
-1
 48
1.0
  6
BYLAYER
100
AcDbLine
 10
24.2864999999999718
 20
66.7757000000000289
 30
0.0
 11
24.2864999999999718
 21
72.5743000000000507
 31
0.0
  0
LINE
  5
3BA
100
AcDbEntity
  8
switchs
 62
256
370
-1
 48
1.0
  6
BYLAYER
100
AcDbLine
 10
24.2864999999999718
 20
72.5743000000000507
 30
0.0
 11
25.087199999999978
 21
72.5743000000000507
 31
0.0
  0
LINE
  5
3BB
100
AcDbEntity
  8
switchs
 62
256
370
-1
 48
1.0
  6
BYLAYER
100
AcDbLine
 10
25.087199999999978
 20
72.5743000000000507
 30
0.0
 11
25.087199999999978
 21
75.6749000000000365
 31
0.0
  0
LINE
  5
3BC
100
AcDbEntity
  8
switchs
 62
256
370
-1
 48
1.0
  6
BYLAYER
100
AcDbLine
 10
25.087199999999978
 20
75.6749000000000365
 30
0.0
 11
24.2864999999999718
 21
75.6749000000000365
 31
0.0
  0
LINE
  5
3BD
100
AcDbEntity
  8
switchs
 62
256
370
-1
 48
1.0
  6
BYLAYER
100
AcDbLine
 10
24.2864999999999718
 20
75.6749000000000365
 30
0.0
 11
24.2864999999999718
 21
76.6754000000000246
 31
0.0
  0
LINE
  5
3BE
100
AcDbEntity
  8
switchs
 62
256
370
-1
 48
1.0
  6
BYLAYER
100
AcDbLine
 10
24.2864999999999718
 20
76.6754000000000246
 30
0.0
 11
10.2870999999999633
 21
76.6754000000000246
 31
0.0
  0
LINE
  5
3BF
100
AcDbEntity
  8
switchs
 62
256
370
-1
 48
1.0
  6
BYLAYER
100
AcDbLine
 10
34.0996999999999701
 20
76.6754000000000246
 30
0.0
 11
34.0996999999999701
 21
75.6749000000000365
 31
0.0
  0
LINE
  5
3C0
100
AcDbEntity
  8
switchs
 62
256
370
-1
 48
1.0
  6
BYLAYER
100
AcDbLine
 10
34.0996999999999701
 20
75.6749000000000365
 30
0.0
 11
33.3002999999999787
 21
75.6749000000000365
 31
0.0
  0
LINE
  5
3C1
100
AcDbEntity
  8
switchs
 62
256
370
-1
 48
1.0
  6
BYLAYER
100
AcDbLine
 10
33.3002999999999787
 20
75.6749000000000365
 30
0.0
 11
33.3002999999999787
 21
72.5743000000000507
 31
0.0
  0
LINE
  5
3C2
100
AcDbEntity
  8
switchs
 62
256
370
-1
 48
1.0
  6
BYLAYER
100
AcDbLine
 10
33.3002999999999787
 20
72.5743000000000507
 30
0.0
 11
34.0996999999999701
 21
72.5743000000000507
 31
0.0
  0
LINE
  5
3C3
100
AcDbEntity
  8
switchs
 62
256
370
-1
 48
1.0
  6
BYLAYER
100
AcDbLine
 10
34.0996999999999701
 20
72.5743000000000507
 30
0.0
 11
34.0996999999999701
 21
66.7757000000000289
 31
0.0
  0
LINE
  5
3C4
100
AcDbEntity
  8
switchs
 62
256
370
-1
 48
1.0
  6
BYLAYER
100
AcDbLine
 10
34.0996999999999701
 20
66.7757000000000289
 30
0.0
 11
33.3002999999999787
 21
66.7757000000000289
 31
0.0
  0
LINE
  5
3C5
100
AcDbEntity
  8
switchs
 62
256
370
-1
 48
1.0
  6
BYLAYER
100
AcDbLine
 10
33.3002999999999787
 20
66.7757000000000289
 30
0.0
 11
33.3002999999999787
 21
63.6751000000000431
 31
0.0
  0
LINE
  5
3C6
100
AcDbEntity
  8
switchs
 62
256
370
-1
 48
1.0
  6
BYLAYER
100
AcDbLine
 10
33.3002999999999787
 20
63.6751000000000431
 30
0.0
 11
34.0996999999999701
 21
63.6751000000000431
 31
0.0
  0
LINE
  5
3C7
100
AcDbEntity
  8
switchs
 62
256
370
-1
 48
1.0
  6
BYLAYER
100
AcDbLine
 10
34.0996999999999701
 20
63.6751000000000431
 30
0.0
 11
34.0996999999999701
 21
62.6747000000000298
 31
0.0
  0
LINE
  5
3C8
100
AcDbEntity
  8
switchs
 62
256
370
-1
 48
1.0
  6
BYLAYER
100
AcDbLine
 10
34.0996999999999701
 20
62.6747000000000298
 30
0.0
 11
48.100399999999965
 21
62.6747000000000298
 31
0.0
  0
LINE
  5
3C9
100
AcDbEntity
  8
switchs
 62
256
370
-1
 48
1.0
  6
BYLAYER
100
AcDbLine
 10
48.100399999999965
 20
62.6747000000000298
 30
0.0
 11
48.100399999999965
 21
63.6751000000000431
 31
0.0
  0
LINE
  5
3CA
100
AcDbEntity
  8
switchs
 62
256
370
-1
 48
1.0
  6
BYLAYER
100
AcDbLine
 10
48.100399999999965
 20
63.6751000000000431
 30
0.0
 11
48.8996999999999815
 21
63.6751000000000431
 31
0.0
  0
LINE
  5
3CB
100
AcDbEntity
  8
switchs
 62
256
370
-1
 48
1.0
  6
BYLAYER
100
AcDbLine
 10
48.8996999999999815
 20
63.6751000000000431
 30
0.0
 11
48.8996999999999815
 21
66.7757000000000289
 31
0.0
  0
LINE
  5
3CC
100
AcDbEntity
  8
switchs
 62
256
370
-1
 48
1.0
  6
BYLAYER
100
AcDbLine
 10
48.8996999999999815
 20
66.7757000000000289
 30
0.0
 11
48.100399999999965
 21
66.7757000000000289
 31
0.0
  0
LINE
  5
3CD
100
AcDbEntity
  8
switchs
 62
256
370
-1
 48
1.0
  6
BYLAYER
100
AcDbLine
 10
48.100399999999965
 20
66.7757000000000289
 30
0.0
 11
48.100399999999965
 21
72.5743000000000507
 31
0.0
  0
LINE
  5
3CE
100
AcDbEntity
  8
switchs
 62
256
370
-1
 48
1.0
  6
BYLAYER
100
AcDbLine
 10
48.100399999999965
 20
72.5743000000000507
 30
0.0
 11
48.8996999999999815
 21
72.5743000000000507
 31
0.0
  0
LINE
  5
3CF
100
AcDbEntity
  8
switchs
 62
256
370
-1
 48
1.0
  6
BYLAYER
100
AcDbLine
 10
48.8996999999999815
 20
72.5743000000000507
 30
0.0
 11
48.8996999999999815
 21
75.6749000000000365
 31
0.0
  0
LINE
  5
3D0
100
AcDbEntity
  8
switchs
 62
256
370
-1
 48
1.0
  6
BYLAYER
100
AcDbLine
 10
48.8996999999999815
 20
75.6749000000000365
 30
0.0
 11
48.100399999999965
 21
75.6749000000000365
 31
0.0
  0
LINE
  5
3D1
100
AcDbEntity
  8
switchs
 62
256
370
-1
 48
1.0
  6
BYLAYER
100
AcDbLine
 10
48.100399999999965
 20
75.6749000000000365
 30
0.0
 11
48.100399999999965
 21
76.6754000000000246
 31
0.0
  0
LINE
  5
3D2
100
AcDbEntity
  8
switchs
 62
256
370
-1
 48
1.0
  6
BYLAYER
100
AcDbLine
 10
48.100399999999965
 20
76.6754000000000246
 30
0.0
 11
34.0996999999999701
 21
76.6754000000000246
 31
0.0
  0
LINE
  5
3D3
100
AcDbEntity
  8
switchs
 62
256
370
-1
 48
1.0
  6
BYLAYER
100
AcDbLine
 10
53.1496999999999815
 20
76.6754000000000246
 30
0.0
 11
53.1496999999999815
 21
75.6749000000000365
 31
0.0
  0
LINE
  5
3D4
100
AcDbEntity
  8
switchs
 62
256
370
-1
 48
1.0
  6
BYLAYER
100
AcDbLine
 10
53.1496999999999815
 20
75.6749000000000365
 30
0.0
 11
52.3502999999999759
 21
75.6749000000000365
 31
0.0
  0
LINE
  5
3D5
100
AcDbEntity
  8
switchs
 62
256
370
-1
 48
1.0
  6
BYLAYER
100
AcDbLine
 10
52.3502999999999759
 20
75.6749000000000365
 30
0.0
 11
52.3502999999999759
 21
72.5743000000000507
 31
0.0
  0
LINE
  5
3D6
100
AcDbEntity
  8
switchs
 62
256
370
-1
 48
1.0
  6
BYLAYER
100
AcDbLine
 10
52.3502999999999759
 20
72.5743000000000507
 30
0.0
 11
53.1496999999999815
 21
72.5743000000000507
 31
0.0
  0
LINE
  5
3D7
100
AcDbEntity
  8
switchs
 62
256
370
-1
 48
1.0
  6
BYLAYER
100
AcDbLine
 10
53.1496999999999815
 20
72.5743000000000507
 30
0.0
 11
53.1496999999999815
 21
66.7757000000000289
 31
0.0
  0
LINE
  5
3D8
100
AcDbEntity
  8
switchs
 62
256
370
-1
 48
1.0
  6
BYLAYER
100
AcDbLine
 10
53.1496999999999815
 20
66.7757000000000289
 30
0.0
 11
52.3502999999999759
 21
66.7757000000000289
 31
0.0
  0
LINE
  5
3D9
100
AcDbEntity
  8
switchs
 62
256
370
-1
 48
1.0
  6
BYLAYER
100
AcDbLine
 10
52.3502999999999759
 20
66.7757000000000289
 30
0.0
 11
52.3502999999999759
 21
63.6751000000000431
 31
0.0
  0
LINE
  5
3DA
100
AcDbEntity
  8
switchs
 62
256
370
-1
 48
1.0
  6
BYLAYER
100
AcDbLine
 10
52.3502999999999759
 20
63.6751000000000431
 30
0.0
 11
53.1496999999999815
 21
63.6751000000000431
 31
0.0
  0
LINE
  5
3DB
100
AcDbEntity
  8
switchs
 62
256
370
-1
 48
1.0
  6
BYLAYER
100
AcDbLine
 10
53.1496999999999815
 20
63.6751000000000431
 30
0.0
 11
53.1496999999999815
 21
62.6747000000000298
 31
0.0
  0
LINE
  5
3DC
100
AcDbEntity
  8
switchs
 62
256
370
-1
 48
1.0
  6
BYLAYER
100
AcDbLine
 10
53.1496999999999815
 20
62.6747000000000298
 30
0.0
 11
67.1503999999999763
 21
62.6747000000000298
 31
0.0
  0
LINE
  5
3DD
100
AcDbEntity
  8
switchs
 62
256
370
-1
 48
1.0
  6
BYLAYER
100
AcDbLine
 10
67.1503999999999763
 20
62.6747000000000298
 30
0.0
 11
67.1503999999999763
 21
63.6751000000000431
 31
0.0
  0
LINE
  5
3DE
100
AcDbEntity
  8
switchs
 62
256
370
-1
 48
1.0
  6
BYLAYER
100
AcDbLine
 10
67.1503999999999763
 20
63.6751000000000431
 30
0.0
 11
67.9496999999999787
 21
63.6751000000000431
 31
0.0
  0
LINE
  5
3DF
100
AcDbEntity
  8
switchs
 62
256
370
-1
 48
1.0
  6
BYLAYER
100
AcDbLine
 10
67.9496999999999787
 20
63.6751000000000431
 30
0.0
 11
67.9496999999999787
 21
66.7757000000000289
 31
0.0
  0
LINE
  5
3E0
100
AcDbEntity
  8
switchs
 62
256
370
-1
 48
1.0
  6
BYLAYER
100
AcDbLine
 10
67.9496999999999787
 20
66.7757000000000289
 30
0.0
 11
67.1503999999999763
 21
66.7757000000000289
 31
0.0
  0
LINE
  5
3E1
100
AcDbEntity
  8
switchs
 62
256
370
-1
 48
1.0
  6
BYLAYER
100
AcDbLine
 10
67.1503999999999763
 20
66.7757000000000289
 30
0.0
 11
67.1503999999999763
 21
72.5743000000000507
 31
0.0
  0
LINE
  5
3E2
100
AcDbEntity
  8
switchs
 62
256
370
-1
 48
1.0
  6
BYLAYER
100
AcDbLine
 10
67.1503999999999763
 20
72.5743000000000507
 30
0.0
 11
67.9496999999999787
 21
72.5743000000000507
 31
0.0
  0
LINE
  5
3E3
100
AcDbEntity
  8
switchs
 62
256
370
-1
 48
1.0
  6
BYLAYER
100
AcDbLine
 10
67.9496999999999787
 20
72.5743000000000507
 30
0.0
 11
67.9496999999999787
 21
75.6749000000000365
 31
0.0
  0
LINE
  5
3E4
100
AcDbEntity
  8
switchs
 62
256
370
-1
 48
1.0
  6
BYLAYER
100
AcDbLine
 10
67.9496999999999787
 20
75.6749000000000365
 30
0.0
 11
67.1503999999999763
 21
75.6749000000000365
 31
0.0
  0
LINE
  5
3E5
100
AcDbEntity
  8
switchs
 62
256
370
-1
 48
1.0
  6
BYLAYER
100
AcDbLine
 10
67.1503999999999763
 20
75.6749000000000365
 30
0.0
 11
67.1503999999999763
 21
76.6754000000000246
 31
0.0
  0
LINE
  5
3E6
100
AcDbEntity
  8
switchs
 62
256
370
-1
 48
1.0
  6
BYLAYER
100
AcDbLine
 10
67.1503999999999763
 20
76.6754000000000246
 30
0.0
 11
53.1496999999999815
 21
76.6754000000000246
 31
0.0
  0
LINE
  5
3E7
100
AcDbEntity
  8
switchs
 62
256
370
-1
 48
1.0
  6
BYLAYER
100
AcDbLine
 10
72.1996999999999787
 20
76.6754000000000246
 30
0.0
 11
72.1996999999999787
 21
75.6749000000000365
 31
0.0
  0
LINE
  5
3E8
100
AcDbEntity
  8
switchs
 62
256
370
-1
 48
1.0
  6
BYLAYER
100
AcDbLine
 10
72.1996999999999787
 20
75.6749000000000365
 30
0.0
 11
71.400299999999973
 21
75.6749000000000365
 31
0.0
  0
LINE
  5
3E9
100
AcDbEntity
  8
switchs
 62
256
370
-1
 48
1.0
  6
BYLAYER
100
AcDbLine
 10
71.400299999999973
 20
75.6749000000000365
 30
0.0
 11
71.400299999999973
 21
72.5743000000000507
 31
0.0
  0
LINE
  5
3EA
100
AcDbEntity
  8
switchs
 62
256
370
-1
 48
1.0
  6
BYLAYER
100
AcDbLine
 10
71.400299999999973
 20
72.5743000000000507
 30
0.0
 11
72.1996999999999787
 21
72.5743000000000507
 31
0.0
  0
LINE
  5
3EB
100
AcDbEntity
  8
switchs
 62
256
370
-1
 48
1.0
  6
BYLAYER
100
AcDbLine
 10
72.1996999999999787
 20
72.5743000000000507
 30
0.0
 11
72.1996999999999787
 21
66.7757000000000289
 31
0.0
  0
LINE
  5
3EC
100
AcDbEntity
  8
switchs
 62
256
370
-1
 48
1.0
  6
BYLAYER
100
AcDbLine
 10
72.1996999999999787
 20
66.7757000000000289
 30
0.0
 11
71.400299999999973
 21
66.7757000000000289
 31
0.0
  0
LINE
  5
3ED
100
AcDbEntity
  8
switchs
 62
256
370
-1
 48
1.0
  6
BYLAYER
100
AcDbLine
 10
71.400299999999973
 20
66.7757000000000289
 30
0.0
 11
71.400299999999973
 21
63.6751000000000431
 31
0.0
  0
LINE
  5
3EE
100
AcDbEntity
  8
switchs
 62
256
370
-1
 48
1.0
  6
BYLAYER
100
AcDbLine
 10
71.400299999999973
 20
63.6751000000000431
 30
0.0
 11
72.1996999999999787
 21
63.6751000000000431
 31
0.0
  0
LINE
  5
3EF
100
AcDbEntity
  8
switchs
 62
256
370
-1
 48
1.0
  6
BYLAYER
100
AcDbLine
 10
72.1996999999999787
 20
63.6751000000000431
 30
0.0
 11
72.1996999999999787
 21
62.6747000000000298
 31
0.0
  0
LINE
  5
3F0
100
AcDbEntity
  8
switchs
 62
256
370
-1
 48
1.0
  6
BYLAYER
100
AcDbLine
 10
72.1996999999999787
 20
62.6747000000000298
 30
0.0
 11
86.2003999999999735
 21
62.6747000000000298
 31
0.0
  0
LINE
  5
3F1
100
AcDbEntity
  8
switchs
 62
256
370
-1
 48
1.0
  6
BYLAYER
100
AcDbLine
 10
86.2003999999999735
 20
62.6747000000000298
 30
0.0
 11
86.2003999999999735
 21
63.6751000000000431
 31
0.0
  0
LINE
  5
3F2
100
AcDbEntity
  8
switchs
 62
256
370
-1
 48
1.0
  6
BYLAYER
100
AcDbLine
 10
86.2003999999999735
 20
63.6751000000000431
 30
0.0
 11
86.9996999999999758
 21
63.6751000000000431
 31
0.0
  0
LINE
  5
3F3
100
AcDbEntity
  8
switchs
 62
256
370
-1
 48
1.0
  6
BYLAYER
100
AcDbLine
 10
86.9996999999999758
 20
63.6751000000000431
 30
0.0
 11
86.9996999999999758
 21
66.7757000000000289
 31
0.0
  0
LINE
  5
3F4
100
AcDbEntity
  8
switchs
 62
256
370
-1
 48
1.0
  6
BYLAYER
100
AcDbLine
 10
86.9996999999999758
 20
66.7757000000000289
 30
0.0
 11
86.2003999999999735
 21
66.7757000000000289
 31
0.0
  0
LINE
  5
3F5
100
AcDbEntity
  8
switchs
 62
256
370
-1
 48
1.0
  6
BYLAYER
100
AcDbLine
 10
86.2003999999999735
 20
66.7757000000000289
 30
0.0
 11
86.2003999999999735
 21
72.5743000000000507
 31
0.0
  0
LINE
  5
3F6
100
AcDbEntity
  8
switchs
 62
256
370
-1
 48
1.0
  6
BYLAYER
100
AcDbLine
 10
86.2003999999999735
 20
72.5743000000000507
 30
0.0
 11
86.9996999999999758
 21
72.5743000000000507
 31
0.0
  0
LINE
  5
3F7
100
AcDbEntity
  8
switchs
 62
256
370
-1
 48
1.0
  6
BYLAYER
100
AcDbLine
 10
86.9996999999999758
 20
72.5743000000000507
 30
0.0
 11
86.9996999999999758
 21
75.6749000000000365
 31
0.0
  0
LINE
  5
3F8
100
AcDbEntity
  8
switchs
 62
256
370
-1
 48
1.0
  6
BYLAYER
100
AcDbLine
 10
86.9996999999999758
 20
75.6749000000000365
 30
0.0
 11
86.2003999999999735
 21
75.6749000000000365
 31
0.0
  0
LINE
  5
3F9
100
AcDbEntity
  8
switchs
 62
256
370
-1
 48
1.0
  6
BYLAYER
100
AcDbLine
 10
86.2003999999999735
 20
75.6749000000000365
 30
0.0
 11
86.2003999999999735
 21
76.6754000000000246
 31
0.0
  0
LINE
  5
3FA
100
AcDbEntity
  8
switchs
 62
256
370
-1
 48
1.0
  6
BYLAYER
100
AcDbLine
 10
86.2003999999999735
 20
76.6754000000000246
 30
0.0
 11
72.1996999999999787
 21
76.6754000000000246
 31
0.0
  0
LINE
  5
3FB
100
AcDbEntity
  8
switchs
 62
256
370
-1
 48
1.0
  6
BYLAYER
100
AcDbLine
 10
91.2496999999999758
 20
76.6754000000000246
 30
0.0
 11
91.2496999999999758
 21
75.6749000000000365
 31
0.0
  0
LINE
  5
3FC
100
AcDbEntity
  8
switchs
 62
256
370
-1
 48
1.0
  6
BYLAYER
100
AcDbLine
 10
91.2496999999999758
 20
75.6749000000000365
 30
0.0
 11
90.4502999999999702
 21
75.6749000000000365
 31
0.0
  0
LINE
  5
3FD
100
AcDbEntity
  8
switchs
 62
256
370
-1
 48
1.0
  6
BYLAYER
100
AcDbLine
 10
90.4502999999999702
 20
75.6749000000000365
 30
0.0
 11
90.4502999999999702
 21
72.5743000000000507
 31
0.0
  0
LINE
  5
3FE
100
AcDbEntity
  8
switchs
 62
256
370
-1
 48
1.0
  6
BYLAYER
100
AcDbLine
 10
90.4502999999999702
 20
72.5743000000000507
 30
0.0
 11
91.2496999999999758
 21
72.5743000000000507
 31
0.0
  0
LINE
  5
3FF
100
AcDbEntity
  8
switchs
 62
256
370
-1
 48
1.0
  6
BYLAYER
100
AcDbLine
 10
91.2496999999999758
 20
72.5743000000000507
 30
0.0
 11
91.2496999999999758
 21
66.7757000000000289
 31
0.0
  0
LINE
  5
400
100
AcDbEntity
  8
switchs
 62
256
370
-1
 48
1.0
  6
BYLAYER
100
AcDbLine
 10
91.2496999999999758
 20
66.7757000000000289
 30
0.0
 11
90.4502999999999702
 21
66.7757000000000289
 31
0.0
  0
LINE
  5
401
100
AcDbEntity
  8
switchs
 62
256
370
-1
 48
1.0
  6
BYLAYER
100
AcDbLine
 10
90.4502999999999702
 20
66.7757000000000289
 30
0.0
 11
90.4502999999999702
 21
63.6751000000000431
 31
0.0
  0
LINE
  5
402
100
AcDbEntity
  8
switchs
 62
256
370
-1
 48
1.0
  6
BYLAYER
100
AcDbLine
 10
90.4502999999999702
 20
63.6751000000000431
 30
0.0
 11
91.2496999999999758
 21
63.6751000000000431
 31
0.0
  0
LINE
  5
403
100
AcDbEntity
  8
switchs
 62
256
370
-1
 48
1.0
  6
BYLAYER
100
AcDbLine
 10
91.2496999999999758
 20
63.6751000000000431
 30
0.0
 11
91.2496999999999758
 21
62.6747000000000298
 31
0.0
  0
LINE
  5
404
100
AcDbEntity
  8
switchs
 62
256
370
-1
 48
1.0
  6
BYLAYER
100
AcDbLine
 10
91.2496999999999758
 20
62.6747000000000298
 30
0.0
 11
105.2502999999999673
 21
62.6747000000000298
 31
0.0
  0
LINE
  5
405
100
AcDbEntity
  8
switchs
 62
256
370
-1
 48
1.0
  6
BYLAYER
100
AcDbLine
 10
105.2502999999999673
 20
62.6747000000000298
 30
0.0
 11
105.2502999999999673
 21
63.6751000000000431
 31
0.0
  0
LINE
  5
406
100
AcDbEntity
  8
switchs
 62
256
370
-1
 48
1.0
  6
BYLAYER
100
AcDbLine
 10
105.2502999999999673
 20
63.6751000000000431
 30
0.0
 11
106.0492999999999739
 21
63.6751000000000431
 31
0.0
  0
LINE
  5
407
100
AcDbEntity
  8
switchs
 62
256
370
-1
 48
1.0
  6
BYLAYER
100
AcDbLine
 10
106.0492999999999739
 20
63.6751000000000431
 30
0.0
 11
106.0492999999999739
 21
66.7757000000000289
 31
0.0
  0
LINE
  5
408
100
AcDbEntity
  8
switchs
 62
256
370
-1
 48
1.0
  6
BYLAYER
100
AcDbLine
 10
106.0492999999999739
 20
66.7757000000000289
 30
0.0
 11
105.2502999999999673
 21
66.7757000000000289
 31
0.0
  0
LINE
  5
409
100
AcDbEntity
  8
switchs
 62
256
370
-1
 48
1.0
  6
BYLAYER
100
AcDbLine
 10
105.2502999999999673
 20
66.7757000000000289
 30
0.0
 11
105.2502999999999673
 21
72.5743000000000507
 31
0.0
  0
LINE
  5
40A
100
AcDbEntity
  8
switchs
 62
256
370
-1
 48
1.0
  6
BYLAYER
100
AcDbLine
 10
105.2502999999999673
 20
72.5743000000000507
 30
0.0
 11
106.0492999999999739
 21
72.5743000000000507
 31
0.0
  0
LINE
  5
40B
100
AcDbEntity
  8
switchs
 62
256
370
-1
 48
1.0
  6
BYLAYER
100
AcDbLine
 10
106.0492999999999739
 20
72.5743000000000507
 30
0.0
 11
106.0492999999999739
 21
75.6749000000000365
 31
0.0
  0
LINE
  5
40C
100
AcDbEntity
  8
switchs
 62
256
370
-1
 48
1.0
  6
BYLAYER
100
AcDbLine
 10
106.0492999999999739
 20
75.6749000000000365
 30
0.0
 11
105.2502999999999673
 21
75.6749000000000365
 31
0.0
  0
LINE
  5
40D
100
AcDbEntity
  8
switchs
 62
256
370
-1
 48
1.0
  6
BYLAYER
100
AcDbLine
 10
105.2502999999999673
 20
75.6749000000000365
 30
0.0
 11
105.2502999999999673
 21
76.6754000000000246
 31
0.0
  0
LINE
  5
40E
100
AcDbEntity
  8
switchs
 62
256
370
-1
 48
1.0
  6
BYLAYER
100
AcDbLine
 10
105.2502999999999673
 20
76.6754000000000246
 30
0.0
 11
91.2496999999999758
 21
76.6754000000000246
 31
0.0
  0
LINE
  5
40F
100
AcDbEntity
  8
switchs
 62
256
370
-1
 48
1.0
  6
BYLAYER
100
AcDbLine
 10
110.2992999999999739
 20
76.6754000000000246
 30
0.0
 11
110.2992999999999739
 21
75.6749000000000365
 31
0.0
  0
LINE
  5
410
100
AcDbEntity
  8
switchs
 62
256
370
-1
 48
1.0
  6
BYLAYER
100
AcDbLine
 10
110.2992999999999739
 20
75.6749000000000365
 30
0.0
 11
109.5002999999999673
 21
75.6749000000000365
 31
0.0
  0
LINE
  5
411
100
AcDbEntity
  8
switchs
 62
256
370
-1
 48
1.0
  6
BYLAYER
100
AcDbLine
 10
109.5002999999999673
 20
75.6749000000000365
 30
0.0
 11
109.5002999999999673
 21
72.5743000000000507
 31
0.0
  0
LINE
  5
412
100
AcDbEntity
  8
switchs
 62
256
370
-1
 48
1.0
  6
BYLAYER
100
AcDbLine
 10
109.5002999999999673
 20
72.5743000000000507
 30
0.0
 11
110.2992999999999739
 21
72.5743000000000507
 31
0.0
  0
LINE
  5
413
100
AcDbEntity
  8
switchs
 62
256
370
-1
 48
1.0
  6
BYLAYER
100
AcDbLine
 10
110.2992999999999739
 20
72.5743000000000507
 30
0.0
 11
110.2992999999999739
 21
66.7757000000000289
 31
0.0
  0
LINE
  5
414
100
AcDbEntity
  8
switchs
 62
256
370
-1
 48
1.0
  6
BYLAYER
100
AcDbLine
 10
110.2992999999999739
 20
66.7757000000000289
 30
0.0
 11
109.5002999999999673
 21
66.7757000000000289
 31
0.0
  0
LINE
  5
415
100
AcDbEntity
  8
switchs
 62
256
370
-1
 48
1.0
  6
BYLAYER
100
AcDbLine
 10
109.5002999999999673
 20
66.7757000000000289
 30
0.0
 11
109.5002999999999673
 21
63.6751000000000431
 31
0.0
  0
LINE
  5
416
100
AcDbEntity
  8
switchs
 62
256
370
-1
 48
1.0
  6
BYLAYER
100
AcDbLine
 10
109.5002999999999673
 20
63.6751000000000431
 30
0.0
 11
110.2992999999999739
 21
63.6751000000000431
 31
0.0
  0
LINE
  5
417
100
AcDbEntity
  8
switchs
 62
256
370
-1
 48
1.0
  6
BYLAYER
100
AcDbLine
 10
110.2992999999999739
 20
63.6751000000000431
 30
0.0
 11
110.2992999999999739
 21
62.6747000000000298
 31
0.0
  0
LINE
  5
418
100
AcDbEntity
  8
switchs
 62
256
370
-1
 48
1.0
  6
BYLAYER
100
AcDbLine
 10
110.2992999999999739
 20
62.6747000000000298
 30
0.0
 11
124.3002999999999787
 21
62.6747000000000298
 31
0.0
  0
LINE
  5
419
100
AcDbEntity
  8
switchs
 62
256
370
-1
 48
1.0
  6
BYLAYER
100
AcDbLine
 10
124.3002999999999787
 20
62.6747000000000298
 30
0.0
 11
124.3002999999999787
 21
63.6751000000000431
 31
0.0
  0
LINE
  5
41A
100
AcDbEntity
  8
switchs
 62
256
370
-1
 48
1.0
  6
BYLAYER
100
AcDbLine
 10
124.3002999999999787
 20
63.6751000000000431
 30
0.0
 11
125.0992999999999853
 21
63.6751000000000431
 31
0.0
  0
LINE
  5
41B
100
AcDbEntity
  8
switchs
 62
256
370
-1
 48
1.0
  6
BYLAYER
100
AcDbLine
 10
125.0992999999999853
 20
63.6751000000000431
 30
0.0
 11
125.0992999999999853
 21
66.7757000000000289
 31
0.0
  0
LINE
  5
41C
100
AcDbEntity
  8
switchs
 62
256
370
-1
 48
1.0
  6
BYLAYER
100
AcDbLine
 10
125.0992999999999853
 20
66.7757000000000289
 30
0.0
 11
124.3002999999999787
 21
66.7757000000000289
 31
0.0
  0
LINE
  5
41D
100
AcDbEntity
  8
switchs
 62
256
370
-1
 48
1.0
  6
BYLAYER
100
AcDbLine
 10
124.3002999999999787
 20
66.7757000000000289
 30
0.0
 11
124.3002999999999787
 21
72.5743000000000507
 31
0.0
  0
LINE
  5
41E
100
AcDbEntity
  8
switchs
 62
256
370
-1
 48
1.0
  6
BYLAYER
100
AcDbLine
 10
124.3002999999999787
 20
72.5743000000000507
 30
0.0
 11
125.0992999999999853
 21
72.5743000000000507
 31
0.0
  0
LINE
  5
41F
100
AcDbEntity
  8
switchs
 62
256
370
-1
 48
1.0
  6
BYLAYER
100
AcDbLine
 10
125.0992999999999853
 20
72.5743000000000507
 30
0.0
 11
125.0992999999999853
 21
75.6749000000000365
 31
0.0
  0
LINE
  5
420
100
AcDbEntity
  8
switchs
 62
256
370
-1
 48
1.0
  6
BYLAYER
100
AcDbLine
 10
125.0992999999999853
 20
75.6749000000000365
 30
0.0
 11
124.3002999999999787
 21
75.6749000000000365
 31
0.0
  0
LINE
  5
421
100
AcDbEntity
  8
switchs
 62
256
370
-1
 48
1.0
  6
BYLAYER
100
AcDbLine
 10
124.3002999999999787
 20
75.6749000000000365
 30
0.0
 11
124.3002999999999787
 21
76.6754000000000246
 31
0.0
  0
LINE
  5
422
100
AcDbEntity
  8
switchs
 62
256
370
-1
 48
1.0
  6
BYLAYER
100
AcDbLine
 10
124.3002999999999787
 20
76.6754000000000246
 30
0.0
 11
110.2992999999999739
 21
76.6754000000000246
 31
0.0
  0
LINE
  5
423
100
AcDbEntity
  8
switchs
 62
256
370
-1
 48
1.0
  6
BYLAYER
100
AcDbLine
 10
129.3492999999999711
 20
76.6754000000000246
 30
0.0
 11
129.3492999999999711
 21
75.6749000000000365
 31
0.0
  0
LINE
  5
424
100
AcDbEntity
  8
switchs
 62
256
370
-1
 48
1.0
  6
BYLAYER
100
AcDbLine
 10
129.3492999999999711
 20
75.6749000000000365
 30
0.0
 11
128.5492999999999597
 21
75.6749000000000365
 31
0.0
  0
LINE
  5
425
100
AcDbEntity
  8
switchs
 62
256
370
-1
 48
1.0
  6
BYLAYER
100
AcDbLine
 10
128.5492999999999597
 20
75.6749000000000365
 30
0.0
 11
128.5492999999999597
 21
72.5743000000000507
 31
0.0
  0
LINE
  5
426
100
AcDbEntity
  8
switchs
 62
256
370
-1
 48
1.0
  6
BYLAYER
100
AcDbLine
 10
128.5492999999999597
 20
72.5743000000000507
 30
0.0
 11
129.3492999999999711
 21
72.5743000000000507
 31
0.0
  0
LINE
  5
427
100
AcDbEntity
  8
switchs
 62
256
370
-1
 48
1.0
  6
BYLAYER
100
AcDbLine
 10
129.3492999999999711
 20
72.5743000000000507
 30
0.0
 11
129.3492999999999711
 21
66.7757000000000289
 31
0.0
  0
LINE
  5
428
100
AcDbEntity
  8
switchs
 62
256
370
-1
 48
1.0
  6
BYLAYER
100
AcDbLine
 10
129.3492999999999711
 20
66.7757000000000289
 30
0.0
 11
128.5492999999999597
 21
66.7757000000000289
 31
0.0
  0
LINE
  5
429
100
AcDbEntity
  8
switchs
 62
256
370
-1
 48
1.0
  6
BYLAYER
100
AcDbLine
 10
128.5492999999999597
 20
66.7757000000000289
 30
0.0
 11
128.5492999999999597
 21
63.6751000000000431
 31
0.0
  0
LINE
  5
42A
100
AcDbEntity
  8
switchs
 62
256
370
-1
 48
1.0
  6
BYLAYER
100
AcDbLine
 10
128.5492999999999597
 20
63.6751000000000431
 30
0.0
 11
129.3492999999999711
 21
63.6751000000000431
 31
0.0
  0
LINE
  5
42B
100
AcDbEntity
  8
switchs
 62
256
370
-1
 48
1.0
  6
BYLAYER
100
AcDbLine
 10
129.3492999999999711
 20
63.6751000000000431
 30
0.0
 11
129.3492999999999711
 21
62.6747000000000298
 31
0.0
  0
LINE
  5
42C
100
AcDbEntity
  8
switchs
 62
256
370
-1
 48
1.0
  6
BYLAYER
100
AcDbLine
 10
129.3492999999999711
 20
62.6747000000000298
 30
0.0
 11
143.3502999999999474
 21
62.6747000000000298
 31
0.0
  0
LINE
  5
42D
100
AcDbEntity
  8
switchs
 62
256
370
-1
 48
1.0
  6
BYLAYER
100
AcDbLine
 10
143.3502999999999474
 20
62.6747000000000298
 30
0.0
 11
143.3502999999999474
 21
63.6751000000000431
 31
0.0
  0
LINE
  5
42E
100
AcDbEntity
  8
switchs
 62
256
370
-1
 48
1.0
  6
BYLAYER
100
AcDbLine
 10
143.3502999999999474
 20
63.6751000000000431
 30
0.0
 11
144.149299999999954
 21
63.6751000000000431
 31
0.0
  0
LINE
  5
42F
100
AcDbEntity
  8
switchs
 62
256
370
-1
 48
1.0
  6
BYLAYER
100
AcDbLine
 10
144.149299999999954
 20
63.6751000000000431
 30
0.0
 11
144.149299999999954
 21
66.7757000000000289
 31
0.0
  0
LINE
  5
430
100
AcDbEntity
  8
switchs
 62
256
370
-1
 48
1.0
  6
BYLAYER
100
AcDbLine
 10
144.149299999999954
 20
66.7757000000000289
 30
0.0
 11
143.3502999999999474
 21
66.7757000000000289
 31
0.0
  0
LINE
  5
431
100
AcDbEntity
  8
switchs
 62
256
370
-1
 48
1.0
  6
BYLAYER
100
AcDbLine
 10
143.3502999999999474
 20
66.7757000000000289
 30
0.0
 11
143.3502999999999474
 21
72.5743000000000507
 31
0.0
  0
LINE
  5
432
100
AcDbEntity
  8
switchs
 62
256
370
-1
 48
1.0
  6
BYLAYER
100
AcDbLine
 10
143.3502999999999474
 20
72.5743000000000507
 30
0.0
 11
144.149299999999954
 21
72.5743000000000507
 31
0.0
  0
LINE
  5
433
100
AcDbEntity
  8
switchs
 62
256
370
-1
 48
1.0
  6
BYLAYER
100
AcDbLine
 10
144.149299999999954
 20
72.5743000000000507
 30
0.0
 11
144.149299999999954
 21
75.6749000000000365
 31
0.0
  0
LINE
  5
434
100
AcDbEntity
  8
switchs
 62
256
370
-1
 48
1.0
  6
BYLAYER
100
AcDbLine
 10
144.149299999999954
 20
75.6749000000000365
 30
0.0
 11
143.3502999999999474
 21
75.6749000000000365
 31
0.0
  0
LINE
  5
435
100
AcDbEntity
  8
switchs
 62
256
370
-1
 48
1.0
  6
BYLAYER
100
AcDbLine
 10
143.3502999999999474
 20
75.6749000000000365
 30
0.0
 11
143.3502999999999474
 21
76.6754000000000246
 31
0.0
  0
LINE
  5
436
100
AcDbEntity
  8
switchs
 62
256
370
-1
 48
1.0
  6
BYLAYER
100
AcDbLine
 10
143.3502999999999474
 20
76.6754000000000246
 30
0.0
 11
129.3492999999999711
 21
76.6754000000000246
 31
0.0
  0
LINE
  5
437
100
AcDbEntity
  8
switchs
 62
256
370
-1
 48
1.0
  6
BYLAYER
100
AcDbLine
 10
148.399299999999954
 20
76.6754000000000246
 30
0.0
 11
148.399299999999954
 21
75.6749000000000365
 31
0.0
  0
LINE
  5
438
100
AcDbEntity
  8
switchs
 62
256
370
-1
 48
1.0
  6
BYLAYER
100
AcDbLine
 10
148.399299999999954
 20
75.6749000000000365
 30
0.0
 11
147.6002999999999474
 21
75.6749000000000365
 31
0.0
  0
LINE
  5
439
100
AcDbEntity
  8
switchs
 62
256
370
-1
 48
1.0
  6
BYLAYER
100
AcDbLine
 10
147.6002999999999474
 20
75.6749000000000365
 30
0.0
 11
147.6002999999999474
 21
72.5743000000000507
 31
0.0
  0
LINE
  5
43A
100
AcDbEntity
  8
switchs
 62
256
370
-1
 48
1.0
  6
BYLAYER
100
AcDbLine
 10
147.6002999999999474
 20
72.5743000000000507
 30
0.0
 11
148.399299999999954
 21
72.5743000000000507
 31
0.0
  0
LINE
  5
43B
100
AcDbEntity
  8
switchs
 62
256
370
-1
 48
1.0
  6
BYLAYER
100
AcDbLine
 10
148.399299999999954
 20
72.5743000000000507
 30
0.0
 11
148.399299999999954
 21
66.7757000000000289
 31
0.0
  0
LINE
  5
43C
100
AcDbEntity
  8
switchs
 62
256
370
-1
 48
1.0
  6
BYLAYER
100
AcDbLine
 10
148.399299999999954
 20
66.7757000000000289
 30
0.0
 11
147.6002999999999474
 21
66.7757000000000289
 31
0.0
  0
LINE
  5
43D
100
AcDbEntity
  8
switchs
 62
256
370
-1
 48
1.0
  6
BYLAYER
100
AcDbLine
 10
147.6002999999999474
 20
66.7757000000000289
 30
0.0
 11
147.6002999999999474
 21
63.6751000000000431
 31
0.0
  0
LINE
  5
43E
100
AcDbEntity
  8
switchs
 62
256
370
-1
 48
1.0
  6
BYLAYER
100
AcDbLine
 10
147.6002999999999474
 20
63.6751000000000431
 30
0.0
 11
148.399299999999954
 21
63.6751000000000431
 31
0.0
  0
LINE
  5
43F
100
AcDbEntity
  8
switchs
 62
256
370
-1
 48
1.0
  6
BYLAYER
100
AcDbLine
 10
148.399299999999954
 20
63.6751000000000431
 30
0.0
 11
148.399299999999954
 21
62.6747000000000298
 31
0.0
  0
LINE
  5
440
100
AcDbEntity
  8
switchs
 62
256
370
-1
 48
1.0
  6
BYLAYER
100
AcDbLine
 10
148.399299999999954
 20
62.6747000000000298
 30
0.0
 11
162.4002999999999588
 21
62.6747000000000298
 31
0.0
  0
LINE
  5
441
100
AcDbEntity
  8
switchs
 62
256
370
-1
 48
1.0
  6
BYLAYER
100
AcDbLine
 10
162.4002999999999588
 20
62.6747000000000298
 30
0.0
 11
162.4002999999999588
 21
63.6751000000000431
 31
0.0
  0
LINE
  5
442
100
AcDbEntity
  8
switchs
 62
256
370
-1
 48
1.0
  6
BYLAYER
100
AcDbLine
 10
162.4002999999999588
 20
63.6751000000000431
 30
0.0
 11
163.1992999999999654
 21
63.6751000000000431
 31
0.0
  0
LINE
  5
443
100
AcDbEntity
  8
switchs
 62
256
370
-1
 48
1.0
  6
BYLAYER
100
AcDbLine
 10
163.1992999999999654
 20
63.6751000000000431
 30
0.0
 11
163.1992999999999654
 21
66.7757000000000289
 31
0.0
  0
LINE
  5
444
100
AcDbEntity
  8
switchs
 62
256
370
-1
 48
1.0
  6
BYLAYER
100
AcDbLine
 10
163.1992999999999654
 20
66.7757000000000289
 30
0.0
 11
162.4002999999999588
 21
66.7757000000000289
 31
0.0
  0
LINE
  5
445
100
AcDbEntity
  8
switchs
 62
256
370
-1
 48
1.0
  6
BYLAYER
100
AcDbLine
 10
162.4002999999999588
 20
66.7757000000000289
 30
0.0
 11
162.4002999999999588
 21
72.5743000000000507
 31
0.0
  0
LINE
  5
446
100
AcDbEntity
  8
switchs
 62
256
370
-1
 48
1.0
  6
BYLAYER
100
AcDbLine
 10
162.4002999999999588
 20
72.5743000000000507
 30
0.0
 11
163.1992999999999654
 21
72.5743000000000507
 31
0.0
  0
LINE
  5
447
100
AcDbEntity
  8
switchs
 62
256
370
-1
 48
1.0
  6
BYLAYER
100
AcDbLine
 10
163.1992999999999654
 20
72.5743000000000507
 30
0.0
 11
163.1992999999999654
 21
75.6749000000000365
 31
0.0
  0
LINE
  5
448
100
AcDbEntity
  8
switchs
 62
256
370
-1
 48
1.0
  6
BYLAYER
100
AcDbLine
 10
163.1992999999999654
 20
75.6749000000000365
 30
0.0
 11
162.4002999999999588
 21
75.6749000000000365
 31
0.0
  0
LINE
  5
449
100
AcDbEntity
  8
switchs
 62
256
370
-1
 48
1.0
  6
BYLAYER
100
AcDbLine
 10
162.4002999999999588
 20
75.6749000000000365
 30
0.0
 11
162.4002999999999588
 21
76.6754000000000246
 31
0.0
  0
LINE
  5
44A
100
AcDbEntity
  8
switchs
 62
256
370
-1
 48
1.0
  6
BYLAYER
100
AcDbLine
 10
162.4002999999999588
 20
76.6754000000000246
 30
0.0
 11
148.399299999999954
 21
76.6754000000000246
 31
0.0
  0
LINE
  5
44B
100
AcDbEntity
  8
switchs
 62
256
370
-1
 48
1.0
  6
BYLAYER
100
AcDbLine
 10
167.4492999999999654
 20
76.6754000000000246
 30
0.0
 11
167.4492999999999654
 21
75.6749000000000365
 31
0.0
  0
LINE
  5
44C
100
AcDbEntity
  8
switchs
 62
256
370
-1
 48
1.0
  6
BYLAYER
100
AcDbLine
 10
167.4492999999999654
 20
75.6749000000000365
 30
0.0
 11
166.6502999999999588
 21
75.6749000000000365
 31
0.0
  0
LINE
  5
44D
100
AcDbEntity
  8
switchs
 62
256
370
-1
 48
1.0
  6
BYLAYER
100
AcDbLine
 10
166.6502999999999588
 20
75.6749000000000365
 30
0.0
 11
166.6502999999999588
 21
72.5743000000000507
 31
0.0
  0
LINE
  5
44E
100
AcDbEntity
  8
switchs
 62
256
370
-1
 48
1.0
  6
BYLAYER
100
AcDbLine
 10
166.6502999999999588
 20
72.5743000000000507
 30
0.0
 11
167.4492999999999654
 21
72.5743000000000507
 31
0.0
  0
LINE
  5
44F
100
AcDbEntity
  8
switchs
 62
256
370
-1
 48
1.0
  6
BYLAYER
100
AcDbLine
 10
167.4492999999999654
 20
72.5743000000000507
 30
0.0
 11
167.4492999999999654
 21
66.7757000000000289
 31
0.0
  0
LINE
  5
450
100
AcDbEntity
  8
switchs
 62
256
370
-1
 48
1.0
  6
BYLAYER
100
AcDbLine
 10
167.4492999999999654
 20
66.7757000000000289
 30
0.0
 11
166.6502999999999588
 21
66.7757000000000289
 31
0.0
  0
LINE
  5
451
100
AcDbEntity
  8
switchs
 62
256
370
-1
 48
1.0
  6
BYLAYER
100
AcDbLine
 10
166.6502999999999588
 20
66.7757000000000289
 30
0.0
 11
166.6502999999999588
 21
63.6751000000000431
 31
0.0
  0
LINE
  5
452
100
AcDbEntity
  8
switchs
 62
256
370
-1
 48
1.0
  6
BYLAYER
100
AcDbLine
 10
166.6502999999999588
 20
63.6751000000000431
 30
0.0
 11
167.4492999999999654
 21
63.6751000000000431
 31
0.0
  0
LINE
  5
453
100
AcDbEntity
  8
switchs
 62
256
370
-1
 48
1.0
  6
BYLAYER
100
AcDbLine
 10
167.4492999999999654
 20
63.6751000000000431
 30
0.0
 11
167.4492999999999654
 21
62.6747000000000298
 31
0.0
  0
LINE
  5
454
100
AcDbEntity
  8
switchs
 62
256
370
-1
 48
1.0
  6
BYLAYER
100
AcDbLine
 10
167.4492999999999654
 20
62.6747000000000298
 30
0.0
 11
181.4502999999999702
 21
62.6747000000000298
 31
0.0
  0
LINE
  5
455
100
AcDbEntity
  8
switchs
 62
256
370
-1
 48
1.0
  6
BYLAYER
100
AcDbLine
 10
181.4502999999999702
 20
62.6747000000000298
 30
0.0
 11
181.4502999999999702
 21
63.6751000000000431
 31
0.0
  0
LINE
  5
456
100
AcDbEntity
  8
switchs
 62
256
370
-1
 48
1.0
  6
BYLAYER
100
AcDbLine
 10
181.4502999999999702
 20
63.6751000000000431
 30
0.0
 11
182.2492999999999483
 21
63.6751000000000431
 31
0.0
  0
LINE
  5
457
100
AcDbEntity
  8
switchs
 62
256
370
-1
 48
1.0
  6
BYLAYER
100
AcDbLine
 10
182.2492999999999483
 20
63.6751000000000431
 30
0.0
 11
182.2492999999999483
 21
66.7757000000000289
 31
0.0
  0
LINE
  5
458
100
AcDbEntity
  8
switchs
 62
256
370
-1
 48
1.0
  6
BYLAYER
100
AcDbLine
 10
182.2492999999999483
 20
66.7757000000000289
 30
0.0
 11
181.4502999999999702
 21
66.7757000000000289
 31
0.0
  0
LINE
  5
459
100
AcDbEntity
  8
switchs
 62
256
370
-1
 48
1.0
  6
BYLAYER
100
AcDbLine
 10
181.4502999999999702
 20
66.7757000000000289
 30
0.0
 11
181.4502999999999702
 21
72.5743000000000507
 31
0.0
  0
LINE
  5
45A
100
AcDbEntity
  8
switchs
 62
256
370
-1
 48
1.0
  6
BYLAYER
100
AcDbLine
 10
181.4502999999999702
 20
72.5743000000000507
 30
0.0
 11
182.2492999999999483
 21
72.5743000000000507
 31
0.0
  0
LINE
  5
45B
100
AcDbEntity
  8
switchs
 62
256
370
-1
 48
1.0
  6
BYLAYER
100
AcDbLine
 10
182.2492999999999483
 20
72.5743000000000507
 30
0.0
 11
182.2492999999999483
 21
75.6749000000000365
 31
0.0
  0
LINE
  5
45C
100
AcDbEntity
  8
switchs
 62
256
370
-1
 48
1.0
  6
BYLAYER
100
AcDbLine
 10
182.2492999999999483
 20
75.6749000000000365
 30
0.0
 11
181.4502999999999702
 21
75.6749000000000365
 31
0.0
  0
LINE
  5
45D
100
AcDbEntity
  8
switchs
 62
256
370
-1
 48
1.0
  6
BYLAYER
100
AcDbLine
 10
181.4502999999999702
 20
75.6749000000000365
 30
0.0
 11
181.4502999999999702
 21
76.6754000000000246
 31
0.0
  0
LINE
  5
45E
100
AcDbEntity
  8
switchs
 62
256
370
-1
 48
1.0
  6
BYLAYER
100
AcDbLine
 10
181.4502999999999702
 20
76.6754000000000246
 30
0.0
 11
167.4492999999999654
 21
76.6754000000000246
 31
0.0
  0
LINE
  5
45F
100
AcDbEntity
  8
switchs
 62
256
370
-1
 48
1.0
  6
BYLAYER
100
AcDbLine
 10
186.4992999999999483
 20
76.6754000000000246
 30
0.0
 11
186.4992999999999483
 21
75.6749000000000365
 31
0.0
  0
LINE
  5
460
100
AcDbEntity
  8
switchs
 62
256
370
-1
 48
1.0
  6
BYLAYER
100
AcDbLine
 10
186.4992999999999483
 20
75.6749000000000365
 30
0.0
 11
185.7002999999999702
 21
75.6749000000000365
 31
0.0
  0
LINE
  5
461
100
AcDbEntity
  8
switchs
 62
256
370
-1
 48
1.0
  6
BYLAYER
100
AcDbLine
 10
185.7002999999999702
 20
75.6749000000000365
 30
0.0
 11
185.7002999999999702
 21
72.5743000000000507
 31
0.0
  0
LINE
  5
462
100
AcDbEntity
  8
switchs
 62
256
370
-1
 48
1.0
  6
BYLAYER
100
AcDbLine
 10
185.7002999999999702
 20
72.5743000000000507
 30
0.0
 11
186.4992999999999483
 21
72.5743000000000507
 31
0.0
  0
LINE
  5
463
100
AcDbEntity
  8
switchs
 62
256
370
-1
 48
1.0
  6
BYLAYER
100
AcDbLine
 10
186.4992999999999483
 20
72.5743000000000507
 30
0.0
 11
186.4992999999999483
 21
66.7757000000000289
 31
0.0
  0
LINE
  5
464
100
AcDbEntity
  8
switchs
 62
256
370
-1
 48
1.0
  6
BYLAYER
100
AcDbLine
 10
186.4992999999999483
 20
66.7757000000000289
 30
0.0
 11
185.7002999999999702
 21
66.7757000000000289
 31
0.0
  0
LINE
  5
465
100
AcDbEntity
  8
switchs
 62
256
370
-1
 48
1.0
  6
BYLAYER
100
AcDbLine
 10
185.7002999999999702
 20
66.7757000000000289
 30
0.0
 11
185.7002999999999702
 21
63.6751000000000431
 31
0.0
  0
LINE
  5
466
100
AcDbEntity
  8
switchs
 62
256
370
-1
 48
1.0
  6
BYLAYER
100
AcDbLine
 10
185.7002999999999702
 20
63.6751000000000431
 30
0.0
 11
186.4992999999999483
 21
63.6751000000000431
 31
0.0
  0
LINE
  5
467
100
AcDbEntity
  8
switchs
 62
256
370
-1
 48
1.0
  6
BYLAYER
100
AcDbLine
 10
186.4992999999999483
 20
63.6751000000000431
 30
0.0
 11
186.4992999999999483
 21
62.6747000000000298
 31
0.0
  0
LINE
  5
468
100
AcDbEntity
  8
switchs
 62
256
370
-1
 48
1.0
  6
BYLAYER
100
AcDbLine
 10
186.4992999999999483
 20
62.6747000000000298
 30
0.0
 11
200.5002999999999531
 21
62.6747000000000298
 31
0.0
  0
LINE
  5
469
100
AcDbEntity
  8
switchs
 62
256
370
-1
 48
1.0
  6
BYLAYER
100
AcDbLine
 10
200.5002999999999531
 20
62.6747000000000298
 30
0.0
 11
200.5002999999999531
 21
63.6751000000000431
 31
0.0
  0
LINE
  5
46A
100
AcDbEntity
  8
switchs
 62
256
370
-1
 48
1.0
  6
BYLAYER
100
AcDbLine
 10
200.5002999999999531
 20
63.6751000000000431
 30
0.0
 11
201.2992999999999597
 21
63.6751000000000431
 31
0.0
  0
LINE
  5
46B
100
AcDbEntity
  8
switchs
 62
256
370
-1
 48
1.0
  6
BYLAYER
100
AcDbLine
 10
201.2992999999999597
 20
63.6751000000000431
 30
0.0
 11
201.2992999999999597
 21
66.7757000000000289
 31
0.0
  0
LINE
  5
46C
100
AcDbEntity
  8
switchs
 62
256
370
-1
 48
1.0
  6
BYLAYER
100
AcDbLine
 10
201.2992999999999597
 20
66.7757000000000289
 30
0.0
 11
200.5002999999999531
 21
66.7757000000000289
 31
0.0
  0
LINE
  5
46D
100
AcDbEntity
  8
switchs
 62
256
370
-1
 48
1.0
  6
BYLAYER
100
AcDbLine
 10
200.5002999999999531
 20
66.7757000000000289
 30
0.0
 11
200.5002999999999531
 21
72.5743000000000507
 31
0.0
  0
LINE
  5
46E
100
AcDbEntity
  8
switchs
 62
256
370
-1
 48
1.0
  6
BYLAYER
100
AcDbLine
 10
200.5002999999999531
 20
72.5743000000000507
 30
0.0
 11
201.2992999999999597
 21
72.5743000000000507
 31
0.0
  0
LINE
  5
46F
100
AcDbEntity
  8
switchs
 62
256
370
-1
 48
1.0
  6
BYLAYER
100
AcDbLine
 10
201.2992999999999597
 20
72.5743000000000507
 30
0.0
 11
201.2992999999999597
 21
75.6749000000000365
 31
0.0
  0
LINE
  5
470
100
AcDbEntity
  8
switchs
 62
256
370
-1
 48
1.0
  6
BYLAYER
100
AcDbLine
 10
201.2992999999999597
 20
75.6749000000000365
 30
0.0
 11
200.5002999999999531
 21
75.6749000000000365
 31
0.0
  0
LINE
  5
471
100
AcDbEntity
  8
switchs
 62
256
370
-1
 48
1.0
  6
BYLAYER
100
AcDbLine
 10
200.5002999999999531
 20
75.6749000000000365
 30
0.0
 11
200.5002999999999531
 21
76.6754000000000246
 31
0.0
  0
LINE
  5
472
100
AcDbEntity
  8
switchs
 62
256
370
-1
 48
1.0
  6
BYLAYER
100
AcDbLine
 10
200.5002999999999531
 20
76.6754000000000246
 30
0.0
 11
186.4992999999999483
 21
76.6754000000000246
 31
0.0
  0
LINE
  5
473
100
AcDbEntity
  8
switchs
 62
256
370
-1
 48
1.0
  6
BYLAYER
100
AcDbLine
 10
205.5492999999999597
 20
76.6754000000000246
 30
0.0
 11
205.5492999999999597
 21
75.6749000000000365
 31
0.0
  0
LINE
  5
474
100
AcDbEntity
  8
switchs
 62
256
370
-1
 48
1.0
  6
BYLAYER
100
AcDbLine
 10
205.5492999999999597
 20
75.6749000000000365
 30
0.0
 11
204.7502999999999531
 21
75.6749000000000365
 31
0.0
  0
LINE
  5
475
100
AcDbEntity
  8
switchs
 62
256
370
-1
 48
1.0
  6
BYLAYER
100
AcDbLine
 10
204.7502999999999531
 20
75.6749000000000365
 30
0.0
 11
204.7502999999999531
 21
72.5743000000000507
 31
0.0
  0
LINE
  5
476
100
AcDbEntity
  8
switchs
 62
256
370
-1
 48
1.0
  6
BYLAYER
100
AcDbLine
 10
204.7502999999999531
 20
72.5743000000000507
 30
0.0
 11
205.5492999999999597
 21
72.5743000000000507
 31
0.0
  0
LINE
  5
477
100
AcDbEntity
  8
switchs
 62
256
370
-1
 48
1.0
  6
BYLAYER
100
AcDbLine
 10
205.5492999999999597
 20
72.5743000000000507
 30
0.0
 11
205.5492999999999597
 21
66.7757000000000289
 31
0.0
  0
LINE
  5
478
100
AcDbEntity
  8
switchs
 62
256
370
-1
 48
1.0
  6
BYLAYER
100
AcDbLine
 10
205.5492999999999597
 20
66.7757000000000289
 30
0.0
 11
204.7502999999999531
 21
66.7757000000000289
 31
0.0
  0
LINE
  5
479
100
AcDbEntity
  8
switchs
 62
256
370
-1
 48
1.0
  6
BYLAYER
100
AcDbLine
 10
204.7502999999999531
 20
66.7757000000000289
 30
0.0
 11
204.7502999999999531
 21
63.6751000000000431
 31
0.0
  0
LINE
  5
47A
100
AcDbEntity
  8
switchs
 62
256
370
-1
 48
1.0
  6
BYLAYER
100
AcDbLine
 10
204.7502999999999531
 20
63.6751000000000431
 30
0.0
 11
205.5492999999999597
 21
63.6751000000000431
 31
0.0
  0
LINE
  5
47B
100
AcDbEntity
  8
switchs
 62
256
370
-1
 48
1.0
  6
BYLAYER
100
AcDbLine
 10
205.5492999999999597
 20
63.6751000000000431
 30
0.0
 11
205.5492999999999597
 21
62.6747000000000298
 31
0.0
  0
LINE
  5
47C
100
AcDbEntity
  8
switchs
 62
256
370
-1
 48
1.0
  6
BYLAYER
100
AcDbLine
 10
205.5492999999999597
 20
62.6747000000000298
 30
0.0
 11
219.5502999999999645
 21
62.6747000000000298
 31
0.0
  0
LINE
  5
47D
100
AcDbEntity
  8
switchs
 62
256
370
-1
 48
1.0
  6
BYLAYER
100
AcDbLine
 10
219.5502999999999645
 20
62.6747000000000298
 30
0.0
 11
219.5502999999999645
 21
63.6751000000000431
 31
0.0
  0
LINE
  5
47E
100
AcDbEntity
  8
switchs
 62
256
370
-1
 48
1.0
  6
BYLAYER
100
AcDbLine
 10
219.5502999999999645
 20
63.6751000000000431
 30
0.0
 11
220.3492999999999711
 21
63.6751000000000431
 31
0.0
  0
LINE
  5
47F
100
AcDbEntity
  8
switchs
 62
256
370
-1
 48
1.0
  6
BYLAYER
100
AcDbLine
 10
220.3492999999999711
 20
63.6751000000000431
 30
0.0
 11
220.3492999999999711
 21
66.7757000000000289
 31
0.0
  0
LINE
  5
480
100
AcDbEntity
  8
switchs
 62
256
370
-1
 48
1.0
  6
BYLAYER
100
AcDbLine
 10
220.3492999999999711
 20
66.7757000000000289
 30
0.0
 11
219.5502999999999645
 21
66.7757000000000289
 31
0.0
  0
LINE
  5
481
100
AcDbEntity
  8
switchs
 62
256
370
-1
 48
1.0
  6
BYLAYER
100
AcDbLine
 10
219.5502999999999645
 20
66.7757000000000289
 30
0.0
 11
219.5502999999999645
 21
72.5743000000000507
 31
0.0
  0
LINE
  5
482
100
AcDbEntity
  8
switchs
 62
256
370
-1
 48
1.0
  6
BYLAYER
100
AcDbLine
 10
219.5502999999999645
 20
72.5743000000000507
 30
0.0
 11
220.3492999999999711
 21
72.5743000000000507
 31
0.0
  0
LINE
  5
483
100
AcDbEntity
  8
switchs
 62
256
370
-1
 48
1.0
  6
BYLAYER
100
AcDbLine
 10
220.3492999999999711
 20
72.5743000000000507
 30
0.0
 11
220.3492999999999711
 21
75.6749000000000365
 31
0.0
  0
LINE
  5
484
100
AcDbEntity
  8
switchs
 62
256
370
-1
 48
1.0
  6
BYLAYER
100
AcDbLine
 10
220.3492999999999711
 20
75.6749000000000365
 30
0.0
 11
219.5502999999999645
 21
75.6749000000000365
 31
0.0
  0
LINE
  5
485
100
AcDbEntity
  8
switchs
 62
256
370
-1
 48
1.0
  6
BYLAYER
100
AcDbLine
 10
219.5502999999999645
 20
75.6749000000000365
 30
0.0
 11
219.5502999999999645
 21
76.6754000000000246
 31
0.0
  0
LINE
  5
486
100
AcDbEntity
  8
switchs
 62
256
370
-1
 48
1.0
  6
BYLAYER
100
AcDbLine
 10
219.5502999999999645
 20
76.6754000000000246
 30
0.0
 11
205.5492999999999597
 21
76.6754000000000246
 31
0.0
  0
LINE
  5
487
100
AcDbEntity
  8
switchs
 62
256
370
-1
 48
1.0
  6
BYLAYER
100
AcDbLine
 10
224.5992999999999711
 20
76.6754000000000246
 30
0.0
 11
224.5992999999999711
 21
75.6749000000000365
 31
0.0
  0
LINE
  5
488
100
AcDbEntity
  8
switchs
 62
256
370
-1
 48
1.0
  6
BYLAYER
100
AcDbLine
 10
224.5992999999999711
 20
75.6749000000000365
 30
0.0
 11
223.8002999999999645
 21
75.6749000000000365
 31
0.0
  0
LINE
  5
489
100
AcDbEntity
  8
switchs
 62
256
370
-1
 48
1.0
  6
BYLAYER
100
AcDbLine
 10
223.8002999999999645
 20
75.6749000000000365
 30
0.0
 11
223.8002999999999645
 21
72.5743000000000507
 31
0.0
  0
LINE
  5
48A
100
AcDbEntity
  8
switchs
 62
256
370
-1
 48
1.0
  6
BYLAYER
100
AcDbLine
 10
223.8002999999999645
 20
72.5743000000000507
 30
0.0
 11
224.5992999999999711
 21
72.5743000000000507
 31
0.0
  0
LINE
  5
48B
100
AcDbEntity
  8
switchs
 62
256
370
-1
 48
1.0
  6
BYLAYER
100
AcDbLine
 10
224.5992999999999711
 20
72.5743000000000507
 30
0.0
 11
224.5992999999999711
 21
66.7757000000000289
 31
0.0
  0
LINE
  5
48C
100
AcDbEntity
  8
switchs
 62
256
370
-1
 48
1.0
  6
BYLAYER
100
AcDbLine
 10
224.5992999999999711
 20
66.7757000000000289
 30
0.0
 11
223.8002999999999645
 21
66.7757000000000289
 31
0.0
  0
LINE
  5
48D
100
AcDbEntity
  8
switchs
 62
256
370
-1
 48
1.0
  6
BYLAYER
100
AcDbLine
 10
223.8002999999999645
 20
66.7757000000000289
 30
0.0
 11
223.8002999999999645
 21
63.6751000000000431
 31
0.0
  0
LINE
  5
48E
100
AcDbEntity
  8
switchs
 62
256
370
-1
 48
1.0
  6
BYLAYER
100
AcDbLine
 10
223.8002999999999645
 20
63.6751000000000431
 30
0.0
 11
224.5992999999999711
 21
63.6751000000000431
 31
0.0
  0
LINE
  5
48F
100
AcDbEntity
  8
switchs
 62
256
370
-1
 48
1.0
  6
BYLAYER
100
AcDbLine
 10
224.5992999999999711
 20
63.6751000000000431
 30
0.0
 11
224.5992999999999711
 21
62.6747000000000298
 31
0.0
  0
LINE
  5
490
100
AcDbEntity
  8
switchs
 62
256
370
-1
 48
1.0
  6
BYLAYER
100
AcDbLine
 10
224.5992999999999711
 20
62.6747000000000298
 30
0.0
 11
238.6002999999999474
 21
62.6747000000000298
 31
0.0
  0
LINE
  5
491
100
AcDbEntity
  8
switchs
 62
256
370
-1
 48
1.0
  6
BYLAYER
100
AcDbLine
 10
238.6002999999999474
 20
62.6747000000000298
 30
0.0
 11
238.6002999999999474
 21
63.6751000000000431
 31
0.0
  0
LINE
  5
492
100
AcDbEntity
  8
switchs
 62
256
370
-1
 48
1.0
  6
BYLAYER
100
AcDbLine
 10
238.6002999999999474
 20
63.6751000000000431
 30
0.0
 11
239.399299999999954
 21
63.6751000000000431
 31
0.0
  0
LINE
  5
493
100
AcDbEntity
  8
switchs
 62
256
370
-1
 48
1.0
  6
BYLAYER
100
AcDbLine
 10
239.399299999999954
 20
63.6751000000000431
 30
0.0
 11
239.399299999999954
 21
66.7757000000000289
 31
0.0
  0
LINE
  5
494
100
AcDbEntity
  8
switchs
 62
256
370
-1
 48
1.0
  6
BYLAYER
100
AcDbLine
 10
239.399299999999954
 20
66.7757000000000289
 30
0.0
 11
238.6002999999999474
 21
66.7757000000000289
 31
0.0
  0
LINE
  5
495
100
AcDbEntity
  8
switchs
 62
256
370
-1
 48
1.0
  6
BYLAYER
100
AcDbLine
 10
238.6002999999999474
 20
66.7757000000000289
 30
0.0
 11
238.6002999999999474
 21
72.5743000000000507
 31
0.0
  0
LINE
  5
496
100
AcDbEntity
  8
switchs
 62
256
370
-1
 48
1.0
  6
BYLAYER
100
AcDbLine
 10
238.6002999999999474
 20
72.5743000000000507
 30
0.0
 11
239.399299999999954
 21
72.5743000000000507
 31
0.0
  0
LINE
  5
497
100
AcDbEntity
  8
switchs
 62
256
370
-1
 48
1.0
  6
BYLAYER
100
AcDbLine
 10
239.399299999999954
 20
72.5743000000000507
 30
0.0
 11
239.399299999999954
 21
75.6749000000000365
 31
0.0
  0
LINE
  5
498
100
AcDbEntity
  8
switchs
 62
256
370
-1
 48
1.0
  6
BYLAYER
100
AcDbLine
 10
239.399299999999954
 20
75.6749000000000365
 30
0.0
 11
238.6002999999999474
 21
75.6749000000000365
 31
0.0
  0
LINE
  5
499
100
AcDbEntity
  8
switchs
 62
256
370
-1
 48
1.0
  6
BYLAYER
100
AcDbLine
 10
238.6002999999999474
 20
75.6749000000000365
 30
0.0
 11
238.6002999999999474
 21
76.6754000000000246
 31
0.0
  0
LINE
  5
49A
100
AcDbEntity
  8
switchs
 62
256
370
-1
 48
1.0
  6
BYLAYER
100
AcDbLine
 10
238.6002999999999474
 20
76.6754000000000246
 30
0.0
 11
224.5992999999999711
 21
76.6754000000000246
 31
0.0
  0
LINE
  5
49B
100
AcDbEntity
  8
switchs
 62
256
370
-1
 48
1.0
  6
BYLAYER
100
AcDbLine
 10
243.649299999999954
 20
76.6754000000000246
 30
0.0
 11
243.649299999999954
 21
75.6749000000000365
 31
0.0
  0
LINE
  5
49C
100
AcDbEntity
  8
switchs
 62
256
370
-1
 48
1.0
  6
BYLAYER
100
AcDbLine
 10
243.649299999999954
 20
75.6749000000000365
 30
0.0
 11
242.8502999999999474
 21
75.6749000000000365
 31
0.0
  0
LINE
  5
49D
100
AcDbEntity
  8
switchs
 62
256
370
-1
 48
1.0
  6
BYLAYER
100
AcDbLine
 10
242.8502999999999474
 20
75.6749000000000365
 30
0.0
 11
242.8502999999999474
 21
72.5743000000000507
 31
0.0
  0
LINE
  5
49E
100
AcDbEntity
  8
switchs
 62
256
370
-1
 48
1.0
  6
BYLAYER
100
AcDbLine
 10
242.8502999999999474
 20
72.5743000000000507
 30
0.0
 11
243.649299999999954
 21
72.5743000000000507
 31
0.0
  0
LINE
  5
49F
100
AcDbEntity
  8
switchs
 62
256
370
-1
 48
1.0
  6
BYLAYER
100
AcDbLine
 10
243.649299999999954
 20
72.5743000000000507
 30
0.0
 11
243.649299999999954
 21
66.7757000000000289
 31
0.0
  0
LINE
  5
4A0
100
AcDbEntity
  8
switchs
 62
256
370
-1
 48
1.0
  6
BYLAYER
100
AcDbLine
 10
243.649299999999954
 20
66.7757000000000289
 30
0.0
 11
242.8502999999999474
 21
66.7757000000000289
 31
0.0
  0
LINE
  5
4A1
100
AcDbEntity
  8
switchs
 62
256
370
-1
 48
1.0
  6
BYLAYER
100
AcDbLine
 10
242.8502999999999474
 20
66.7757000000000289
 30
0.0
 11
242.8502999999999474
 21
63.6751000000000431
 31
0.0
  0
LINE
  5
4A2
100
AcDbEntity
  8
switchs
 62
256
370
-1
 48
1.0
  6
BYLAYER
100
AcDbLine
 10
242.8502999999999474
 20
63.6751000000000431
 30
0.0
 11
243.649299999999954
 21
63.6751000000000431
 31
0.0
  0
LINE
  5
4A3
100
AcDbEntity
  8
switchs
 62
256
370
-1
 48
1.0
  6
BYLAYER
100
AcDbLine
 10
243.649299999999954
 20
63.6751000000000431
 30
0.0
 11
243.649299999999954
 21
62.6747000000000298
 31
0.0
  0
LINE
  5
4A4
100
AcDbEntity
  8
switchs
 62
256
370
-1
 48
1.0
  6
BYLAYER
100
AcDbLine
 10
243.649299999999954
 20
62.6747000000000298
 30
0.0
 11
257.6503000000000156
 21
62.6747000000000298
 31
0.0
  0
LINE
  5
4A5
100
AcDbEntity
  8
switchs
 62
256
370
-1
 48
1.0
  6
BYLAYER
100
AcDbLine
 10
257.6503000000000156
 20
62.6747000000000298
 30
0.0
 11
257.6503000000000156
 21
63.6751000000000431
 31
0.0
  0
LINE
  5
4A6
100
AcDbEntity
  8
switchs
 62
256
370
-1
 48
1.0
  6
BYLAYER
100
AcDbLine
 10
257.6503000000000156
 20
63.6751000000000431
 30
0.0
 11
258.4492999999999938
 21
63.6751000000000431
 31
0.0
  0
LINE
  5
4A7
100
AcDbEntity
  8
switchs
 62
256
370
-1
 48
1.0
  6
BYLAYER
100
AcDbLine
 10
258.4492999999999938
 20
63.6751000000000431
 30
0.0
 11
258.4492999999999938
 21
66.7757000000000289
 31
0.0
  0
LINE
  5
4A8
100
AcDbEntity
  8
switchs
 62
256
370
-1
 48
1.0
  6
BYLAYER
100
AcDbLine
 10
258.4492999999999938
 20
66.7757000000000289
 30
0.0
 11
257.6503000000000156
 21
66.7757000000000289
 31
0.0
  0
LINE
  5
4A9
100
AcDbEntity
  8
switchs
 62
256
370
-1
 48
1.0
  6
BYLAYER
100
AcDbLine
 10
257.6503000000000156
 20
66.7757000000000289
 30
0.0
 11
257.6503000000000156
 21
72.5743000000000507
 31
0.0
  0
LINE
  5
4AA
100
AcDbEntity
  8
switchs
 62
256
370
-1
 48
1.0
  6
BYLAYER
100
AcDbLine
 10
257.6503000000000156
 20
72.5743000000000507
 30
0.0
 11
258.4492999999999938
 21
72.5743000000000507
 31
0.0
  0
LINE
  5
4AB
100
AcDbEntity
  8
switchs
 62
256
370
-1
 48
1.0
  6
BYLAYER
100
AcDbLine
 10
258.4492999999999938
 20
72.5743000000000507
 30
0.0
 11
258.4492999999999938
 21
75.6749000000000365
 31
0.0
  0
LINE
  5
4AC
100
AcDbEntity
  8
switchs
 62
256
370
-1
 48
1.0
  6
BYLAYER
100
AcDbLine
 10
258.4492999999999938
 20
75.6749000000000365
 30
0.0
 11
257.6503000000000156
 21
75.6749000000000365
 31
0.0
  0
LINE
  5
4AD
100
AcDbEntity
  8
switchs
 62
256
370
-1
 48
1.0
  6
BYLAYER
100
AcDbLine
 10
257.6503000000000156
 20
75.6749000000000365
 30
0.0
 11
257.6503000000000156
 21
76.6754000000000246
 31
0.0
  0
LINE
  5
4AE
100
AcDbEntity
  8
switchs
 62
256
370
-1
 48
1.0
  6
BYLAYER
100
AcDbLine
 10
257.6503000000000156
 20
76.6754000000000246
 30
0.0
 11
243.649299999999954
 21
76.6754000000000246
 31
0.0
  0
LINE
  5
4AF
100
AcDbEntity
  8
switchs
 62
256
370
-1
 48
1.0
  6
BYLAYER
100
AcDbLine
 10
267.4622999999999706
 20
76.6754000000000246
 30
0.0
 11
267.4622999999999706
 21
75.6749000000000365
 31
0.0
  0
LINE
  5
4B0
100
AcDbEntity
  8
switchs
 62
256
370
-1
 48
1.0
  6
BYLAYER
100
AcDbLine
 10
267.4622999999999706
 20
75.6749000000000365
 30
0.0
 11
266.6612999999999829
 21
75.6749000000000365
 31
0.0
  0
LINE
  5
4B1
100
AcDbEntity
  8
switchs
 62
256
370
-1
 48
1.0
  6
BYLAYER
100
AcDbLine
 10
266.6612999999999829
 20
75.6749000000000365
 30
0.0
 11
266.6612999999999829
 21
72.5743000000000507
 31
0.0
  0
LINE
  5
4B2
100
AcDbEntity
  8
switchs
 62
256
370
-1
 48
1.0
  6
BYLAYER
100
AcDbLine
 10
266.6612999999999829
 20
72.5743000000000507
 30
0.0
 11
267.4622999999999706
 21
72.5743000000000507
 31
0.0
  0
LINE
  5
4B3
100
AcDbEntity
  8
switchs
 62
256
370
-1
 48
1.0
  6
BYLAYER
100
AcDbLine
 10
267.4622999999999706
 20
72.5743000000000507
 30
0.0
 11
267.4622999999999706
 21
66.7757000000000289
 31
0.0
  0
LINE
  5
4B4
100
AcDbEntity
  8
switchs
 62
256
370
-1
 48
1.0
  6
BYLAYER
100
AcDbLine
 10
267.4622999999999706
 20
66.7757000000000289
 30
0.0
 11
266.6612999999999829
 21
66.7757000000000289
 31
0.0
  0
LINE
  5
4B5
100
AcDbEntity
  8
switchs
 62
256
370
-1
 48
1.0
  6
BYLAYER
100
AcDbLine
 10
266.6612999999999829
 20
66.7757000000000289
 30
0.0
 11
266.6612999999999829
 21
63.6751000000000431
 31
0.0
  0
LINE
  5
4B6
100
AcDbEntity
  8
switchs
 62
256
370
-1
 48
1.0
  6
BYLAYER
100
AcDbLine
 10
266.6612999999999829
 20
63.6751000000000431
 30
0.0
 11
267.4622999999999706
 21
63.6751000000000431
 31
0.0
  0
LINE
  5
4B7
100
AcDbEntity
  8
switchs
 62
256
370
-1
 48
1.0
  6
BYLAYER
100
AcDbLine
 10
267.4622999999999706
 20
63.6751000000000431
 30
0.0
 11
267.4622999999999706
 21
62.6747000000000298
 31
0.0
  0
LINE
  5
4B8
100
AcDbEntity
  8
switchs
 62
256
370
-1
 48
1.0
  6
BYLAYER
100
AcDbLine
 10
267.4622999999999706
 20
62.6747000000000298
 30
0.0
 11
281.4612999999999943
 21
62.6747000000000298
 31
0.0
  0
LINE
  5
4B9
100
AcDbEntity
  8
switchs
 62
256
370
-1
 48
1.0
  6
BYLAYER
100
AcDbLine
 10
281.4612999999999943
 20
62.6747000000000298
 30
0.0
 11
281.4612999999999943
 21
63.6751000000000431
 31
0.0
  0
LINE
  5
4BA
100
AcDbEntity
  8
switchs
 62
256
370
-1
 48
1.0
  6
BYLAYER
100
AcDbLine
 10
281.4612999999999943
 20
63.6751000000000431
 30
0.0
 11
282.262299999999982
 21
63.6751000000000431
 31
0.0
  0
LINE
  5
4BB
100
AcDbEntity
  8
switchs
 62
256
370
-1
 48
1.0
  6
BYLAYER
100
AcDbLine
 10
282.262299999999982
 20
63.6751000000000431
 30
0.0
 11
282.262299999999982
 21
66.7757000000000289
 31
0.0
  0
LINE
  5
4BC
100
AcDbEntity
  8
switchs
 62
256
370
-1
 48
1.0
  6
BYLAYER
100
AcDbLine
 10
282.262299999999982
 20
66.7757000000000289
 30
0.0
 11
281.4612999999999943
 21
66.7757000000000289
 31
0.0
  0
LINE
  5
4BD
100
AcDbEntity
  8
switchs
 62
256
370
-1
 48
1.0
  6
BYLAYER
100
AcDbLine
 10
281.4612999999999943
 20
66.7757000000000289
 30
0.0
 11
281.4612999999999943
 21
72.5743000000000507
 31
0.0
  0
LINE
  5
4BE
100
AcDbEntity
  8
switchs
 62
256
370
-1
 48
1.0
  6
BYLAYER
100
AcDbLine
 10
281.4612999999999943
 20
72.5743000000000507
 30
0.0
 11
282.262299999999982
 21
72.5743000000000507
 31
0.0
  0
LINE
  5
4BF
100
AcDbEntity
  8
switchs
 62
256
370
-1
 48
1.0
  6
BYLAYER
100
AcDbLine
 10
282.262299999999982
 20
72.5743000000000507
 30
0.0
 11
282.262299999999982
 21
75.6749000000000365
 31
0.0
  0
LINE
  5
4C0
100
AcDbEntity
  8
switchs
 62
256
370
-1
 48
1.0
  6
BYLAYER
100
AcDbLine
 10
282.262299999999982
 20
75.6749000000000365
 30
0.0
 11
281.4612999999999943
 21
75.6749000000000365
 31
0.0
  0
LINE
  5
4C1
100
AcDbEntity
  8
switchs
 62
256
370
-1
 48
1.0
  6
BYLAYER
100
AcDbLine
 10
281.4612999999999943
 20
75.6749000000000365
 30
0.0
 11
281.4612999999999943
 21
76.6754000000000246
 31
0.0
  0
LINE
  5
4C2
100
AcDbEntity
  8
switchs
 62
256
370
-1
 48
1.0
  6
BYLAYER
100
AcDbLine
 10
281.4612999999999943
 20
76.6754000000000246
 30
0.0
 11
267.4622999999999706
 21
76.6754000000000246
 31
0.0
  0
LINE
  5
4C3
100
AcDbEntity
  8
switchs
 62
256
370
-1
 48
1.0
  6
BYLAYER
100
AcDbLine
 10
5.5245599999999619
 20
95.725400000000036
 30
0.0
 11
5.5245599999999619
 21
94.7263000000000375
 31
0.0
  0
LINE
  5
4C4
100
AcDbEntity
  8
switchs
 62
256
370
-1
 48
1.0
  6
BYLAYER
100
AcDbLine
 10
5.5245599999999619
 20
94.7263000000000375
 30
0.0
 11
4.723929999999978
 21
94.7263000000000375
 31
0.0
  0
LINE
  5
4C5
100
AcDbEntity
  8
switchs
 62
256
370
-1
 48
1.0
  6
BYLAYER
100
AcDbLine
 10
4.723929999999978
 20
94.7263000000000375
 30
0.0
 11
4.723929999999978
 21
91.6243000000000336
 31
0.0
  0
LINE
  5
4C6
100
AcDbEntity
  8
switchs
 62
256
370
-1
 48
1.0
  6
BYLAYER
100
AcDbLine
 10
4.723929999999978
 20
91.6243000000000336
 30
0.0
 11
5.5245599999999619
 21
91.6243000000000336
 31
0.0
  0
LINE
  5
4C7
100
AcDbEntity
  8
switchs
 62
256
370
-1
 48
1.0
  6
BYLAYER
100
AcDbLine
 10
5.5245599999999619
 20
91.6243000000000336
 30
0.0
 11
5.5245599999999619
 21
85.8257000000000403
 31
0.0
  0
LINE
  5
4C8
100
AcDbEntity
  8
switchs
 62
256
370
-1
 48
1.0
  6
BYLAYER
100
AcDbLine
 10
5.5245599999999619
 20
85.8257000000000403
 30
0.0
 11
4.723929999999978
 21
85.8257000000000403
 31
0.0
  0
LINE
  5
4C9
100
AcDbEntity
  8
switchs
 62
256
370
-1
 48
1.0
  6
BYLAYER
100
AcDbLine
 10
4.723929999999978
 20
85.8257000000000403
 30
0.0
 11
4.723929999999978
 21
82.7251000000000261
 31
0.0
  0
LINE
  5
4CA
100
AcDbEntity
  8
switchs
 62
256
370
-1
 48
1.0
  6
BYLAYER
100
AcDbLine
 10
4.723929999999978
 20
82.7251000000000261
 30
0.0
 11
5.5245599999999619
 21
82.7251000000000261
 31
0.0
  0
LINE
  5
4CB
100
AcDbEntity
  8
switchs
 62
256
370
-1
 48
1.0
  6
BYLAYER
100
AcDbLine
 10
5.5245599999999619
 20
82.7251000000000261
 30
0.0
 11
5.5245599999999619
 21
81.7247000000000412
 31
0.0
  0
LINE
  5
4CC
100
AcDbEntity
  8
switchs
 62
256
370
-1
 48
1.0
  6
BYLAYER
100
AcDbLine
 10
5.5245599999999619
 20
81.7247000000000412
 30
0.0
 11
19.5253999999999728
 21
81.7247000000000412
 31
0.0
  0
LINE
  5
4CD
100
AcDbEntity
  8
switchs
 62
256
370
-1
 48
1.0
  6
BYLAYER
100
AcDbLine
 10
19.5253999999999728
 20
81.7247000000000412
 30
0.0
 11
19.5253999999999728
 21
82.7251000000000261
 31
0.0
  0
LINE
  5
4CE
100
AcDbEntity
  8
switchs
 62
256
370
-1
 48
1.0
  6
BYLAYER
100
AcDbLine
 10
19.5253999999999728
 20
82.7251000000000261
 30
0.0
 11
20.3246999999999609
 21
82.7251000000000261
 31
0.0
  0
LINE
  5
4CF
100
AcDbEntity
  8
switchs
 62
256
370
-1
 48
1.0
  6
BYLAYER
100
AcDbLine
 10
20.3246999999999609
 20
82.7251000000000261
 30
0.0
 11
20.3246999999999609
 21
85.8257000000000403
 31
0.0
  0
LINE
  5
4D0
100
AcDbEntity
  8
switchs
 62
256
370
-1
 48
1.0
  6
BYLAYER
100
AcDbLine
 10
20.3246999999999609
 20
85.8257000000000403
 30
0.0
 11
19.5253999999999728
 21
85.8257000000000403
 31
0.0
  0
LINE
  5
4D1
100
AcDbEntity
  8
switchs
 62
256
370
-1
 48
1.0
  6
BYLAYER
100
AcDbLine
 10
19.5253999999999728
 20
85.8257000000000403
 30
0.0
 11
19.5253999999999728
 21
91.6243000000000336
 31
0.0
  0
LINE
  5
4D2
100
AcDbEntity
  8
switchs
 62
256
370
-1
 48
1.0
  6
BYLAYER
100
AcDbLine
 10
19.5253999999999728
 20
91.6243000000000336
 30
0.0
 11
20.3246999999999609
 21
91.6243000000000336
 31
0.0
  0
LINE
  5
4D3
100
AcDbEntity
  8
switchs
 62
256
370
-1
 48
1.0
  6
BYLAYER
100
AcDbLine
 10
20.3246999999999609
 20
91.6243000000000336
 30
0.0
 11
20.3246999999999609
 21
94.7263000000000375
 31
0.0
  0
LINE
  5
4D4
100
AcDbEntity
  8
switchs
 62
256
370
-1
 48
1.0
  6
BYLAYER
100
AcDbLine
 10
20.3246999999999609
 20
94.7263000000000375
 30
0.0
 11
19.5253999999999728
 21
94.7263000000000375
 31
0.0
  0
LINE
  5
4D5
100
AcDbEntity
  8
switchs
 62
256
370
-1
 48
1.0
  6
BYLAYER
100
AcDbLine
 10
19.5253999999999728
 20
94.7263000000000375
 30
0.0
 11
19.5253999999999728
 21
95.725400000000036
 31
0.0
  0
LINE
  5
4D6
100
AcDbEntity
  8
switchs
 62
256
370
-1
 48
1.0
  6
BYLAYER
100
AcDbLine
 10
19.5253999999999728
 20
95.725400000000036
 30
0.0
 11
5.5245599999999619
 21
95.725400000000036
 31
0.0
  0
LINE
  5
4D7
100
AcDbEntity
  8
switchs
 62
256
370
-1
 48
1.0
  6
BYLAYER
100
AcDbLine
 10
24.5745999999999718
 20
95.725400000000036
 30
0.0
 11
24.5745999999999718
 21
94.7263000000000375
 31
0.0
  0
LINE
  5
4D8
100
AcDbEntity
  8
switchs
 62
256
370
-1
 48
1.0
  6
BYLAYER
100
AcDbLine
 10
24.5745999999999718
 20
94.7263000000000375
 30
0.0
 11
23.7752999999999695
 21
94.7263000000000375
 31
0.0
  0
LINE
  5
4D9
100
AcDbEntity
  8
switchs
 62
256
370
-1
 48
1.0
  6
BYLAYER
100
AcDbLine
 10
23.7752999999999695
 20
94.7263000000000375
 30
0.0
 11
23.7752999999999695
 21
91.6243000000000336
 31
0.0
  0
LINE
  5
4DA
100
AcDbEntity
  8
switchs
 62
256
370
-1
 48
1.0
  6
BYLAYER
100
AcDbLine
 10
23.7752999999999695
 20
91.6243000000000336
 30
0.0
 11
24.5745999999999718
 21
91.6243000000000336
 31
0.0
  0
LINE
  5
4DB
100
AcDbEntity
  8
switchs
 62
256
370
-1
 48
1.0
  6
BYLAYER
100
AcDbLine
 10
24.5745999999999718
 20
91.6243000000000336
 30
0.0
 11
24.5745999999999718
 21
85.8257000000000403
 31
0.0
  0
LINE
  5
4DC
100
AcDbEntity
  8
switchs
 62
256
370
-1
 48
1.0
  6
BYLAYER
100
AcDbLine
 10
24.5745999999999718
 20
85.8257000000000403
 30
0.0
 11
23.7752999999999695
 21
85.8257000000000403
 31
0.0
  0
LINE
  5
4DD
100
AcDbEntity
  8
switchs
 62
256
370
-1
 48
1.0
  6
BYLAYER
100
AcDbLine
 10
23.7752999999999695
 20
85.8257000000000403
 30
0.0
 11
23.7752999999999695
 21
82.7251000000000261
 31
0.0
  0
LINE
  5
4DE
100
AcDbEntity
  8
switchs
 62
256
370
-1
 48
1.0
  6
BYLAYER
100
AcDbLine
 10
23.7752999999999695
 20
82.7251000000000261
 30
0.0
 11
24.5745999999999718
 21
82.7251000000000261
 31
0.0
  0
LINE
  5
4DF
100
AcDbEntity
  8
switchs
 62
256
370
-1
 48
1.0
  6
BYLAYER
100
AcDbLine
 10
24.5745999999999718
 20
82.7251000000000261
 30
0.0
 11
24.5745999999999718
 21
81.7247000000000412
 31
0.0
  0
LINE
  5
4E0
100
AcDbEntity
  8
switchs
 62
256
370
-1
 48
1.0
  6
BYLAYER
100
AcDbLine
 10
24.5745999999999718
 20
81.7247000000000412
 30
0.0
 11
38.5753999999999735
 21
81.7247000000000412
 31
0.0
  0
LINE
  5
4E1
100
AcDbEntity
  8
switchs
 62
256
370
-1
 48
1.0
  6
BYLAYER
100
AcDbLine
 10
38.5753999999999735
 20
81.7247000000000412
 30
0.0
 11
38.5753999999999735
 21
82.7251000000000261
 31
0.0
  0
LINE
  5
4E2
100
AcDbEntity
  8
switchs
 62
256
370
-1
 48
1.0
  6
BYLAYER
100
AcDbLine
 10
38.5753999999999735
 20
82.7251000000000261
 30
0.0
 11
39.3746999999999758
 21
82.7251000000000261
 31
0.0
  0
LINE
  5
4E3
100
AcDbEntity
  8
switchs
 62
256
370
-1
 48
1.0
  6
BYLAYER
100
AcDbLine
 10
39.3746999999999758
 20
82.7251000000000261
 30
0.0
 11
39.3746999999999758
 21
85.8257000000000403
 31
0.0
  0
LINE
  5
4E4
100
AcDbEntity
  8
switchs
 62
256
370
-1
 48
1.0
  6
BYLAYER
100
AcDbLine
 10
39.3746999999999758
 20
85.8257000000000403
 30
0.0
 11
38.5753999999999735
 21
85.8257000000000403
 31
0.0
  0
LINE
  5
4E5
100
AcDbEntity
  8
switchs
 62
256
370
-1
 48
1.0
  6
BYLAYER
100
AcDbLine
 10
38.5753999999999735
 20
85.8257000000000403
 30
0.0
 11
38.5753999999999735
 21
91.6243000000000336
 31
0.0
  0
LINE
  5
4E6
100
AcDbEntity
  8
switchs
 62
256
370
-1
 48
1.0
  6
BYLAYER
100
AcDbLine
 10
38.5753999999999735
 20
91.6243000000000336
 30
0.0
 11
39.3746999999999758
 21
91.6243000000000336
 31
0.0
  0
LINE
  5
4E7
100
AcDbEntity
  8
switchs
 62
256
370
-1
 48
1.0
  6
BYLAYER
100
AcDbLine
 10
39.3746999999999758
 20
91.6243000000000336
 30
0.0
 11
39.3746999999999758
 21
94.7263000000000375
 31
0.0
  0
LINE
  5
4E8
100
AcDbEntity
  8
switchs
 62
256
370
-1
 48
1.0
  6
BYLAYER
100
AcDbLine
 10
39.3746999999999758
 20
94.7263000000000375
 30
0.0
 11
38.5753999999999735
 21
94.7263000000000375
 31
0.0
  0
LINE
  5
4E9
100
AcDbEntity
  8
switchs
 62
256
370
-1
 48
1.0
  6
BYLAYER
100
AcDbLine
 10
38.5753999999999735
 20
94.7263000000000375
 30
0.0
 11
38.5753999999999735
 21
95.725400000000036
 31
0.0
  0
LINE
  5
4EA
100
AcDbEntity
  8
switchs
 62
256
370
-1
 48
1.0
  6
BYLAYER
100
AcDbLine
 10
38.5753999999999735
 20
95.725400000000036
 30
0.0
 11
24.5745999999999718
 21
95.725400000000036
 31
0.0
  0
LINE
  5
4EB
100
AcDbEntity
  8
switchs
 62
256
370
-1
 48
1.0
  6
BYLAYER
100
AcDbLine
 10
43.6246999999999758
 20
95.725400000000036
 30
0.0
 11
43.6246999999999758
 21
94.7263000000000375
 31
0.0
  0
LINE
  5
4EC
100
AcDbEntity
  8
switchs
 62
256
370
-1
 48
1.0
  6
BYLAYER
100
AcDbLine
 10
43.6246999999999758
 20
94.7263000000000375
 30
0.0
 11
42.8252999999999702
 21
94.7263000000000375
 31
0.0
  0
LINE
  5
4ED
100
AcDbEntity
  8
switchs
 62
256
370
-1
 48
1.0
  6
BYLAYER
100
AcDbLine
 10
42.8252999999999702
 20
94.7263000000000375
 30
0.0
 11
42.8252999999999702
 21
91.6243000000000336
 31
0.0
  0
LINE
  5
4EE
100
AcDbEntity
  8
switchs
 62
256
370
-1
 48
1.0
  6
BYLAYER
100
AcDbLine
 10
42.8252999999999702
 20
91.6243000000000336
 30
0.0
 11
43.6246999999999758
 21
91.6243000000000336
 31
0.0
  0
LINE
  5
4EF
100
AcDbEntity
  8
switchs
 62
256
370
-1
 48
1.0
  6
BYLAYER
100
AcDbLine
 10
43.6246999999999758
 20
91.6243000000000336
 30
0.0
 11
43.6246999999999758
 21
85.8257000000000403
 31
0.0
  0
LINE
  5
4F0
100
AcDbEntity
  8
switchs
 62
256
370
-1
 48
1.0
  6
BYLAYER
100
AcDbLine
 10
43.6246999999999758
 20
85.8257000000000403
 30
0.0
 11
42.8252999999999702
 21
85.8257000000000403
 31
0.0
  0
LINE
  5
4F1
100
AcDbEntity
  8
switchs
 62
256
370
-1
 48
1.0
  6
BYLAYER
100
AcDbLine
 10
42.8252999999999702
 20
85.8257000000000403
 30
0.0
 11
42.8252999999999702
 21
82.7251000000000261
 31
0.0
  0
LINE
  5
4F2
100
AcDbEntity
  8
switchs
 62
256
370
-1
 48
1.0
  6
BYLAYER
100
AcDbLine
 10
42.8252999999999702
 20
82.7251000000000261
 30
0.0
 11
43.6246999999999758
 21
82.7251000000000261
 31
0.0
  0
LINE
  5
4F3
100
AcDbEntity
  8
switchs
 62
256
370
-1
 48
1.0
  6
BYLAYER
100
AcDbLine
 10
43.6246999999999758
 20
82.7251000000000261
 30
0.0
 11
43.6246999999999758
 21
81.7247000000000412
 31
0.0
  0
LINE
  5
4F4
100
AcDbEntity
  8
switchs
 62
256
370
-1
 48
1.0
  6
BYLAYER
100
AcDbLine
 10
43.6246999999999758
 20
81.7247000000000412
 30
0.0
 11
57.6253999999999706
 21
81.7247000000000412
 31
0.0
  0
LINE
  5
4F5
100
AcDbEntity
  8
switchs
 62
256
370
-1
 48
1.0
  6
BYLAYER
100
AcDbLine
 10
57.6253999999999706
 20
81.7247000000000412
 30
0.0
 11
57.6253999999999706
 21
82.7251000000000261
 31
0.0
  0
LINE
  5
4F6
100
AcDbEntity
  8
switchs
 62
256
370
-1
 48
1.0
  6
BYLAYER
100
AcDbLine
 10
57.6253999999999706
 20
82.7251000000000261
 30
0.0
 11
58.424699999999973
 21
82.7251000000000261
 31
0.0
  0
LINE
  5
4F7
100
AcDbEntity
  8
switchs
 62
256
370
-1
 48
1.0
  6
BYLAYER
100
AcDbLine
 10
58.424699999999973
 20
82.7251000000000261
 30
0.0
 11
58.424699999999973
 21
85.8257000000000403
 31
0.0
  0
LINE
  5
4F8
100
AcDbEntity
  8
switchs
 62
256
370
-1
 48
1.0
  6
BYLAYER
100
AcDbLine
 10
58.424699999999973
 20
85.8257000000000403
 30
0.0
 11
57.6253999999999706
 21
85.8257000000000403
 31
0.0
  0
LINE
  5
4F9
100
AcDbEntity
  8
switchs
 62
256
370
-1
 48
1.0
  6
BYLAYER
100
AcDbLine
 10
57.6253999999999706
 20
85.8257000000000403
 30
0.0
 11
57.6253999999999706
 21
91.6243000000000336
 31
0.0
  0
LINE
  5
4FA
100
AcDbEntity
  8
switchs
 62
256
370
-1
 48
1.0
  6
BYLAYER
100
AcDbLine
 10
57.6253999999999706
 20
91.6243000000000336
 30
0.0
 11
58.424699999999973
 21
91.6243000000000336
 31
0.0
  0
LINE
  5
4FB
100
AcDbEntity
  8
switchs
 62
256
370
-1
 48
1.0
  6
BYLAYER
100
AcDbLine
 10
58.424699999999973
 20
91.6243000000000336
 30
0.0
 11
58.424699999999973
 21
94.7263000000000375
 31
0.0
  0
LINE
  5
4FC
100
AcDbEntity
  8
switchs
 62
256
370
-1
 48
1.0
  6
BYLAYER
100
AcDbLine
 10
58.424699999999973
 20
94.7263000000000375
 30
0.0
 11
57.6253999999999706
 21
94.7263000000000375
 31
0.0
  0
LINE
  5
4FD
100
AcDbEntity
  8
switchs
 62
256
370
-1
 48
1.0
  6
BYLAYER
100
AcDbLine
 10
57.6253999999999706
 20
94.7263000000000375
 30
0.0
 11
57.6253999999999706
 21
95.725400000000036
 31
0.0
  0
LINE
  5
4FE
100
AcDbEntity
  8
switchs
 62
256
370
-1
 48
1.0
  6
BYLAYER
100
AcDbLine
 10
57.6253999999999706
 20
95.725400000000036
 30
0.0
 11
43.6246999999999758
 21
95.725400000000036
 31
0.0
  0
LINE
  5
4FF
100
AcDbEntity
  8
switchs
 62
256
370
-1
 48
1.0
  6
BYLAYER
100
AcDbLine
 10
62.674699999999973
 20
95.725400000000036
 30
0.0
 11
62.674699999999973
 21
94.7263000000000375
 31
0.0
  0
LINE
  5
500
100
AcDbEntity
  8
switchs
 62
256
370
-1
 48
1.0
  6
BYLAYER
100
AcDbLine
 10
62.674699999999973
 20
94.7263000000000375
 30
0.0
 11
61.8752999999999673
 21
94.7263000000000375
 31
0.0
  0
LINE
  5
501
100
AcDbEntity
  8
switchs
 62
256
370
-1
 48
1.0
  6
BYLAYER
100
AcDbLine
 10
61.8752999999999673
 20
94.7263000000000375
 30
0.0
 11
61.8752999999999673
 21
91.6243000000000336
 31
0.0
  0
LINE
  5
502
100
AcDbEntity
  8
switchs
 62
256
370
-1
 48
1.0
  6
BYLAYER
100
AcDbLine
 10
61.8752999999999673
 20
91.6243000000000336
 30
0.0
 11
62.674699999999973
 21
91.6243000000000336
 31
0.0
  0
LINE
  5
503
100
AcDbEntity
  8
switchs
 62
256
370
-1
 48
1.0
  6
BYLAYER
100
AcDbLine
 10
62.674699999999973
 20
91.6243000000000336
 30
0.0
 11
62.674699999999973
 21
85.8257000000000403
 31
0.0
  0
LINE
  5
504
100
AcDbEntity
  8
switchs
 62
256
370
-1
 48
1.0
  6
BYLAYER
100
AcDbLine
 10
62.674699999999973
 20
85.8257000000000403
 30
0.0
 11
61.8752999999999673
 21
85.8257000000000403
 31
0.0
  0
LINE
  5
505
100
AcDbEntity
  8
switchs
 62
256
370
-1
 48
1.0
  6
BYLAYER
100
AcDbLine
 10
61.8752999999999673
 20
85.8257000000000403
 30
0.0
 11
61.8752999999999673
 21
82.7251000000000261
 31
0.0
  0
LINE
  5
506
100
AcDbEntity
  8
switchs
 62
256
370
-1
 48
1.0
  6
BYLAYER
100
AcDbLine
 10
61.8752999999999673
 20
82.7251000000000261
 30
0.0
 11
62.674699999999973
 21
82.7251000000000261
 31
0.0
  0
LINE
  5
507
100
AcDbEntity
  8
switchs
 62
256
370
-1
 48
1.0
  6
BYLAYER
100
AcDbLine
 10
62.674699999999973
 20
82.7251000000000261
 30
0.0
 11
62.674699999999973
 21
81.7247000000000412
 31
0.0
  0
LINE
  5
508
100
AcDbEntity
  8
switchs
 62
256
370
-1
 48
1.0
  6
BYLAYER
100
AcDbLine
 10
62.674699999999973
 20
81.7247000000000412
 30
0.0
 11
76.6753999999999678
 21
81.7247000000000412
 31
0.0
  0
LINE
  5
509
100
AcDbEntity
  8
switchs
 62
256
370
-1
 48
1.0
  6
BYLAYER
100
AcDbLine
 10
76.6753999999999678
 20
81.7247000000000412
 30
0.0
 11
76.6753999999999678
 21
82.7251000000000261
 31
0.0
  0
LINE
  5
50A
100
AcDbEntity
  8
switchs
 62
256
370
-1
 48
1.0
  6
BYLAYER
100
AcDbLine
 10
76.6753999999999678
 20
82.7251000000000261
 30
0.0
 11
77.4746999999999701
 21
82.7251000000000261
 31
0.0
  0
LINE
  5
50B
100
AcDbEntity
  8
switchs
 62
256
370
-1
 48
1.0
  6
BYLAYER
100
AcDbLine
 10
77.4746999999999701
 20
82.7251000000000261
 30
0.0
 11
77.4746999999999701
 21
85.8257000000000403
 31
0.0
  0
LINE
  5
50C
100
AcDbEntity
  8
switchs
 62
256
370
-1
 48
1.0
  6
BYLAYER
100
AcDbLine
 10
77.4746999999999701
 20
85.8257000000000403
 30
0.0
 11
76.6753999999999678
 21
85.8257000000000403
 31
0.0
  0
LINE
  5
50D
100
AcDbEntity
  8
switchs
 62
256
370
-1
 48
1.0
  6
BYLAYER
100
AcDbLine
 10
76.6753999999999678
 20
85.8257000000000403
 30
0.0
 11
76.6753999999999678
 21
91.6243000000000336
 31
0.0
  0
LINE
  5
50E
100
AcDbEntity
  8
switchs
 62
256
370
-1
 48
1.0
  6
BYLAYER
100
AcDbLine
 10
76.6753999999999678
 20
91.6243000000000336
 30
0.0
 11
77.4746999999999701
 21
91.6243000000000336
 31
0.0
  0
LINE
  5
50F
100
AcDbEntity
  8
switchs
 62
256
370
-1
 48
1.0
  6
BYLAYER
100
AcDbLine
 10
77.4746999999999701
 20
91.6243000000000336
 30
0.0
 11
77.4746999999999701
 21
94.7263000000000375
 31
0.0
  0
LINE
  5
510
100
AcDbEntity
  8
switchs
 62
256
370
-1
 48
1.0
  6
BYLAYER
100
AcDbLine
 10
77.4746999999999701
 20
94.7263000000000375
 30
0.0
 11
76.6753999999999678
 21
94.7263000000000375
 31
0.0
  0
LINE
  5
511
100
AcDbEntity
  8
switchs
 62
256
370
-1
 48
1.0
  6
BYLAYER
100
AcDbLine
 10
76.6753999999999678
 20
94.7263000000000375
 30
0.0
 11
76.6753999999999678
 21
95.725400000000036
 31
0.0
  0
LINE
  5
512
100
AcDbEntity
  8
switchs
 62
256
370
-1
 48
1.0
  6
BYLAYER
100
AcDbLine
 10
76.6753999999999678
 20
95.725400000000036
 30
0.0
 11
62.674699999999973
 21
95.725400000000036
 31
0.0
  0
LINE
  5
513
100
AcDbEntity
  8
switchs
 62
256
370
-1
 48
1.0
  6
BYLAYER
100
AcDbLine
 10
81.7246999999999701
 20
95.725400000000036
 30
0.0
 11
81.7246999999999701
 21
94.7263000000000375
 31
0.0
  0
LINE
  5
514
100
AcDbEntity
  8
switchs
 62
256
370
-1
 48
1.0
  6
BYLAYER
100
AcDbLine
 10
81.7246999999999701
 20
94.7263000000000375
 30
0.0
 11
80.9252999999999787
 21
94.7263000000000375
 31
0.0
  0
LINE
  5
515
100
AcDbEntity
  8
switchs
 62
256
370
-1
 48
1.0
  6
BYLAYER
100
AcDbLine
 10
80.9252999999999787
 20
94.7263000000000375
 30
0.0
 11
80.9252999999999787
 21
91.6243000000000336
 31
0.0
  0
LINE
  5
516
100
AcDbEntity
  8
switchs
 62
256
370
-1
 48
1.0
  6
BYLAYER
100
AcDbLine
 10
80.9252999999999787
 20
91.6243000000000336
 30
0.0
 11
81.7246999999999701
 21
91.6243000000000336
 31
0.0
  0
LINE
  5
517
100
AcDbEntity
  8
switchs
 62
256
370
-1
 48
1.0
  6
BYLAYER
100
AcDbLine
 10
81.7246999999999701
 20
91.6243000000000336
 30
0.0
 11
81.7246999999999701
 21
85.8257000000000403
 31
0.0
  0
LINE
  5
518
100
AcDbEntity
  8
switchs
 62
256
370
-1
 48
1.0
  6
BYLAYER
100
AcDbLine
 10
81.7246999999999701
 20
85.8257000000000403
 30
0.0
 11
80.9252999999999787
 21
85.8257000000000403
 31
0.0
  0
LINE
  5
519
100
AcDbEntity
  8
switchs
 62
256
370
-1
 48
1.0
  6
BYLAYER
100
AcDbLine
 10
80.9252999999999787
 20
85.8257000000000403
 30
0.0
 11
80.9252999999999787
 21
82.7251000000000261
 31
0.0
  0
LINE
  5
51A
100
AcDbEntity
  8
switchs
 62
256
370
-1
 48
1.0
  6
BYLAYER
100
AcDbLine
 10
80.9252999999999787
 20
82.7251000000000261
 30
0.0
 11
81.7246999999999701
 21
82.7251000000000261
 31
0.0
  0
LINE
  5
51B
100
AcDbEntity
  8
switchs
 62
256
370
-1
 48
1.0
  6
BYLAYER
100
AcDbLine
 10
81.7246999999999701
 20
82.7251000000000261
 30
0.0
 11
81.7246999999999701
 21
81.7247000000000412
 31
0.0
  0
LINE
  5
51C
100
AcDbEntity
  8
switchs
 62
256
370
-1
 48
1.0
  6
BYLAYER
100
AcDbLine
 10
81.7246999999999701
 20
81.7247000000000412
 30
0.0
 11
95.7253999999999792
 21
81.7247000000000412
 31
0.0
  0
LINE
  5
51D
100
AcDbEntity
  8
switchs
 62
256
370
-1
 48
1.0
  6
BYLAYER
100
AcDbLine
 10
95.7253999999999792
 20
81.7247000000000412
 30
0.0
 11
95.7253999999999792
 21
82.7251000000000261
 31
0.0
  0
LINE
  5
51E
100
AcDbEntity
  8
switchs
 62
256
370
-1
 48
1.0
  6
BYLAYER
100
AcDbLine
 10
95.7253999999999792
 20
82.7251000000000261
 30
0.0
 11
96.5246999999999673
 21
82.7251000000000261
 31
0.0
  0
LINE
  5
51F
100
AcDbEntity
  8
switchs
 62
256
370
-1
 48
1.0
  6
BYLAYER
100
AcDbLine
 10
96.5246999999999673
 20
82.7251000000000261
 30
0.0
 11
96.5246999999999673
 21
85.8257000000000403
 31
0.0
  0
LINE
  5
520
100
AcDbEntity
  8
switchs
 62
256
370
-1
 48
1.0
  6
BYLAYER
100
AcDbLine
 10
96.5246999999999673
 20
85.8257000000000403
 30
0.0
 11
95.7253999999999792
 21
85.8257000000000403
 31
0.0
  0
LINE
  5
521
100
AcDbEntity
  8
switchs
 62
256
370
-1
 48
1.0
  6
BYLAYER
100
AcDbLine
 10
95.7253999999999792
 20
85.8257000000000403
 30
0.0
 11
95.7253999999999792
 21
91.6243000000000336
 31
0.0
  0
LINE
  5
522
100
AcDbEntity
  8
switchs
 62
256
370
-1
 48
1.0
  6
BYLAYER
100
AcDbLine
 10
95.7253999999999792
 20
91.6243000000000336
 30
0.0
 11
96.5246999999999673
 21
91.6243000000000336
 31
0.0
  0
LINE
  5
523
100
AcDbEntity
  8
switchs
 62
256
370
-1
 48
1.0
  6
BYLAYER
100
AcDbLine
 10
96.5246999999999673
 20
91.6243000000000336
 30
0.0
 11
96.5246999999999673
 21
94.7263000000000375
 31
0.0
  0
LINE
  5
524
100
AcDbEntity
  8
switchs
 62
256
370
-1
 48
1.0
  6
BYLAYER
100
AcDbLine
 10
96.5246999999999673
 20
94.7263000000000375
 30
0.0
 11
95.7253999999999792
 21
94.7263000000000375
 31
0.0
  0
LINE
  5
525
100
AcDbEntity
  8
switchs
 62
256
370
-1
 48
1.0
  6
BYLAYER
100
AcDbLine
 10
95.7253999999999792
 20
94.7263000000000375
 30
0.0
 11
95.7253999999999792
 21
95.725400000000036
 31
0.0
  0
LINE
  5
526
100
AcDbEntity
  8
switchs
 62
256
370
-1
 48
1.0
  6
BYLAYER
100
AcDbLine
 10
95.7253999999999792
 20
95.725400000000036
 30
0.0
 11
81.7246999999999701
 21
95.725400000000036
 31
0.0
  0
LINE
  5
527
100
AcDbEntity
  8
switchs
 62
256
370
-1
 48
1.0
  6
BYLAYER
100
AcDbLine
 10
100.7742999999999682
 20
95.725400000000036
 30
0.0
 11
100.7742999999999682
 21
94.7263000000000375
 31
0.0
  0
LINE
  5
528
100
AcDbEntity
  8
switchs
 62
256
370
-1
 48
1.0
  6
BYLAYER
100
AcDbLine
 10
100.7742999999999682
 20
94.7263000000000375
 30
0.0
 11
99.9752999999999759
 21
94.7263000000000375
 31
0.0
  0
LINE
  5
529
100
AcDbEntity
  8
switchs
 62
256
370
-1
 48
1.0
  6
BYLAYER
100
AcDbLine
 10
99.9752999999999759
 20
94.7263000000000375
 30
0.0
 11
99.9752999999999759
 21
91.6243000000000336
 31
0.0
  0
LINE
  5
52A
100
AcDbEntity
  8
switchs
 62
256
370
-1
 48
1.0
  6
BYLAYER
100
AcDbLine
 10
99.9752999999999759
 20
91.6243000000000336
 30
0.0
 11
100.7742999999999682
 21
91.6243000000000336
 31
0.0
  0
LINE
  5
52B
100
AcDbEntity
  8
switchs
 62
256
370
-1
 48
1.0
  6
BYLAYER
100
AcDbLine
 10
100.7742999999999682
 20
91.6243000000000336
 30
0.0
 11
100.7742999999999682
 21
85.8257000000000403
 31
0.0
  0
LINE
  5
52C
100
AcDbEntity
  8
switchs
 62
256
370
-1
 48
1.0
  6
BYLAYER
100
AcDbLine
 10
100.7742999999999682
 20
85.8257000000000403
 30
0.0
 11
99.9752999999999759
 21
85.8257000000000403
 31
0.0
  0
LINE
  5
52D
100
AcDbEntity
  8
switchs
 62
256
370
-1
 48
1.0
  6
BYLAYER
100
AcDbLine
 10
99.9752999999999759
 20
85.8257000000000403
 30
0.0
 11
99.9752999999999759
 21
82.7251000000000261
 31
0.0
  0
LINE
  5
52E
100
AcDbEntity
  8
switchs
 62
256
370
-1
 48
1.0
  6
BYLAYER
100
AcDbLine
 10
99.9752999999999759
 20
82.7251000000000261
 30
0.0
 11
100.7742999999999682
 21
82.7251000000000261
 31
0.0
  0
LINE
  5
52F
100
AcDbEntity
  8
switchs
 62
256
370
-1
 48
1.0
  6
BYLAYER
100
AcDbLine
 10
100.7742999999999682
 20
82.7251000000000261
 30
0.0
 11
100.7742999999999682
 21
81.7247000000000412
 31
0.0
  0
LINE
  5
530
100
AcDbEntity
  8
switchs
 62
256
370
-1
 48
1.0
  6
BYLAYER
100
AcDbLine
 10
100.7742999999999682
 20
81.7247000000000412
 30
0.0
 11
114.7742999999999682
 21
81.7247000000000412
 31
0.0
  0
LINE
  5
531
100
AcDbEntity
  8
switchs
 62
256
370
-1
 48
1.0
  6
BYLAYER
100
AcDbLine
 10
114.7742999999999682
 20
81.7247000000000412
 30
0.0
 11
114.7742999999999682
 21
82.7251000000000261
 31
0.0
  0
LINE
  5
532
100
AcDbEntity
  8
switchs
 62
256
370
-1
 48
1.0
  6
BYLAYER
100
AcDbLine
 10
114.7742999999999682
 20
82.7251000000000261
 30
0.0
 11
115.5742999999999796
 21
82.7251000000000261
 31
0.0
  0
LINE
  5
533
100
AcDbEntity
  8
switchs
 62
256
370
-1
 48
1.0
  6
BYLAYER
100
AcDbLine
 10
115.5742999999999796
 20
82.7251000000000261
 30
0.0
 11
115.5742999999999796
 21
85.8257000000000403
 31
0.0
  0
LINE
  5
534
100
AcDbEntity
  8
switchs
 62
256
370
-1
 48
1.0
  6
BYLAYER
100
AcDbLine
 10
115.5742999999999796
 20
85.8257000000000403
 30
0.0
 11
114.7742999999999682
 21
85.8257000000000403
 31
0.0
  0
LINE
  5
535
100
AcDbEntity
  8
switchs
 62
256
370
-1
 48
1.0
  6
BYLAYER
100
AcDbLine
 10
114.7742999999999682
 20
85.8257000000000403
 30
0.0
 11
114.7742999999999682
 21
91.6243000000000336
 31
0.0
  0
LINE
  5
536
100
AcDbEntity
  8
switchs
 62
256
370
-1
 48
1.0
  6
BYLAYER
100
AcDbLine
 10
114.7742999999999682
 20
91.6243000000000336
 30
0.0
 11
115.5742999999999796
 21
91.6243000000000336
 31
0.0
  0
LINE
  5
537
100
AcDbEntity
  8
switchs
 62
256
370
-1
 48
1.0
  6
BYLAYER
100
AcDbLine
 10
115.5742999999999796
 20
91.6243000000000336
 30
0.0
 11
115.5742999999999796
 21
94.7263000000000375
 31
0.0
  0
LINE
  5
538
100
AcDbEntity
  8
switchs
 62
256
370
-1
 48
1.0
  6
BYLAYER
100
AcDbLine
 10
115.5742999999999796
 20
94.7263000000000375
 30
0.0
 11
114.7742999999999682
 21
94.7263000000000375
 31
0.0
  0
LINE
  5
539
100
AcDbEntity
  8
switchs
 62
256
370
-1
 48
1.0
  6
BYLAYER
100
AcDbLine
 10
114.7742999999999682
 20
94.7263000000000375
 30
0.0
 11
114.7742999999999682
 21
95.725400000000036
 31
0.0
  0
LINE
  5
53A
100
AcDbEntity
  8
switchs
 62
256
370
-1
 48
1.0
  6
BYLAYER
100
AcDbLine
 10
114.7742999999999682
 20
95.725400000000036
 30
0.0
 11
100.7742999999999682
 21
95.725400000000036
 31
0.0
  0
LINE
  5
53B
100
AcDbEntity
  8
switchs
 62
256
370
-1
 48
1.0
  6
BYLAYER
100
AcDbLine
 10
119.8242999999999796
 20
95.725400000000036
 30
0.0
 11
119.8242999999999796
 21
94.7263000000000375
 31
0.0
  0
LINE
  5
53C
100
AcDbEntity
  8
switchs
 62
256
370
-1
 48
1.0
  6
BYLAYER
100
AcDbLine
 10
119.8242999999999796
 20
94.7263000000000375
 30
0.0
 11
119.0242999999999682
 21
94.7263000000000375
 31
0.0
  0
LINE
  5
53D
100
AcDbEntity
  8
switchs
 62
256
370
-1
 48
1.0
  6
BYLAYER
100
AcDbLine
 10
119.0242999999999682
 20
94.7263000000000375
 30
0.0
 11
119.0242999999999682
 21
91.6243000000000336
 31
0.0
  0
LINE
  5
53E
100
AcDbEntity
  8
switchs
 62
256
370
-1
 48
1.0
  6
BYLAYER
100
AcDbLine
 10
119.0242999999999682
 20
91.6243000000000336
 30
0.0
 11
119.8242999999999796
 21
91.6243000000000336
 31
0.0
  0
LINE
  5
53F
100
AcDbEntity
  8
switchs
 62
256
370
-1
 48
1.0
  6
BYLAYER
100
AcDbLine
 10
119.8242999999999796
 20
91.6243000000000336
 30
0.0
 11
119.8242999999999796
 21
85.8257000000000403
 31
0.0
  0
LINE
  5
540
100
AcDbEntity
  8
switchs
 62
256
370
-1
 48
1.0
  6
BYLAYER
100
AcDbLine
 10
119.8242999999999796
 20
85.8257000000000403
 30
0.0
 11
119.0242999999999682
 21
85.8257000000000403
 31
0.0
  0
LINE
  5
541
100
AcDbEntity
  8
switchs
 62
256
370
-1
 48
1.0
  6
BYLAYER
100
AcDbLine
 10
119.0242999999999682
 20
85.8257000000000403
 30
0.0
 11
119.0242999999999682
 21
82.7251000000000261
 31
0.0
  0
LINE
  5
542
100
AcDbEntity
  8
switchs
 62
256
370
-1
 48
1.0
  6
BYLAYER
100
AcDbLine
 10
119.0242999999999682
 20
82.7251000000000261
 30
0.0
 11
119.8242999999999796
 21
82.7251000000000261
 31
0.0
  0
LINE
  5
543
100
AcDbEntity
  8
switchs
 62
256
370
-1
 48
1.0
  6
BYLAYER
100
AcDbLine
 10
119.8242999999999796
 20
82.7251000000000261
 30
0.0
 11
119.8242999999999796
 21
81.7247000000000412
 31
0.0
  0
LINE
  5
544
100
AcDbEntity
  8
switchs
 62
256
370
-1
 48
1.0
  6
BYLAYER
100
AcDbLine
 10
119.8242999999999796
 20
81.7247000000000412
 30
0.0
 11
133.8252999999999702
 21
81.7247000000000412
 31
0.0
  0
LINE
  5
545
100
AcDbEntity
  8
switchs
 62
256
370
-1
 48
1.0
  6
BYLAYER
100
AcDbLine
 10
133.8252999999999702
 20
81.7247000000000412
 30
0.0
 11
133.8252999999999702
 21
82.7251000000000261
 31
0.0
  0
LINE
  5
546
100
AcDbEntity
  8
switchs
 62
256
370
-1
 48
1.0
  6
BYLAYER
100
AcDbLine
 10
133.8252999999999702
 20
82.7251000000000261
 30
0.0
 11
134.6242999999999483
 21
82.7251000000000261
 31
0.0
  0
LINE
  5
547
100
AcDbEntity
  8
switchs
 62
256
370
-1
 48
1.0
  6
BYLAYER
100
AcDbLine
 10
134.6242999999999483
 20
82.7251000000000261
 30
0.0
 11
134.6242999999999483
 21
85.8257000000000403
 31
0.0
  0
LINE
  5
548
100
AcDbEntity
  8
switchs
 62
256
370
-1
 48
1.0
  6
BYLAYER
100
AcDbLine
 10
134.6242999999999483
 20
85.8257000000000403
 30
0.0
 11
133.8252999999999702
 21
85.8257000000000403
 31
0.0
  0
LINE
  5
549
100
AcDbEntity
  8
switchs
 62
256
370
-1
 48
1.0
  6
BYLAYER
100
AcDbLine
 10
133.8252999999999702
 20
85.8257000000000403
 30
0.0
 11
133.8252999999999702
 21
91.6243000000000336
 31
0.0
  0
LINE
  5
54A
100
AcDbEntity
  8
switchs
 62
256
370
-1
 48
1.0
  6
BYLAYER
100
AcDbLine
 10
133.8252999999999702
 20
91.6243000000000336
 30
0.0
 11
134.6242999999999483
 21
91.6243000000000336
 31
0.0
  0
LINE
  5
54B
100
AcDbEntity
  8
switchs
 62
256
370
-1
 48
1.0
  6
BYLAYER
100
AcDbLine
 10
134.6242999999999483
 20
91.6243000000000336
 30
0.0
 11
134.6242999999999483
 21
94.7263000000000375
 31
0.0
  0
LINE
  5
54C
100
AcDbEntity
  8
switchs
 62
256
370
-1
 48
1.0
  6
BYLAYER
100
AcDbLine
 10
134.6242999999999483
 20
94.7263000000000375
 30
0.0
 11
133.8252999999999702
 21
94.7263000000000375
 31
0.0
  0
LINE
  5
54D
100
AcDbEntity
  8
switchs
 62
256
370
-1
 48
1.0
  6
BYLAYER
100
AcDbLine
 10
133.8252999999999702
 20
94.7263000000000375
 30
0.0
 11
133.8252999999999702
 21
95.725400000000036
 31
0.0
  0
LINE
  5
54E
100
AcDbEntity
  8
switchs
 62
256
370
-1
 48
1.0
  6
BYLAYER
100
AcDbLine
 10
133.8252999999999702
 20
95.725400000000036
 30
0.0
 11
119.8242999999999796
 21
95.725400000000036
 31
0.0
  0
LINE
  5
54F
100
AcDbEntity
  8
switchs
 62
256
370
-1
 48
1.0
  6
BYLAYER
100
AcDbLine
 10
138.8742999999999483
 20
95.725400000000036
 30
0.0
 11
138.8742999999999483
 21
94.7263000000000375
 31
0.0
  0
LINE
  5
550
100
AcDbEntity
  8
switchs
 62
256
370
-1
 48
1.0
  6
BYLAYER
100
AcDbLine
 10
138.8742999999999483
 20
94.7263000000000375
 30
0.0
 11
138.0752999999999702
 21
94.7263000000000375
 31
0.0
  0
LINE
  5
551
100
AcDbEntity
  8
switchs
 62
256
370
-1
 48
1.0
  6
BYLAYER
100
AcDbLine
 10
138.0752999999999702
 20
94.7263000000000375
 30
0.0
 11
138.0752999999999702
 21
91.6243000000000336
 31
0.0
  0
LINE
  5
552
100
AcDbEntity
  8
switchs
 62
256
370
-1
 48
1.0
  6
BYLAYER
100
AcDbLine
 10
138.0752999999999702
 20
91.6243000000000336
 30
0.0
 11
138.8742999999999483
 21
91.6243000000000336
 31
0.0
  0
LINE
  5
553
100
AcDbEntity
  8
switchs
 62
256
370
-1
 48
1.0
  6
BYLAYER
100
AcDbLine
 10
138.8742999999999483
 20
91.6243000000000336
 30
0.0
 11
138.8742999999999483
 21
85.8257000000000403
 31
0.0
  0
LINE
  5
554
100
AcDbEntity
  8
switchs
 62
256
370
-1
 48
1.0
  6
BYLAYER
100
AcDbLine
 10
138.8742999999999483
 20
85.8257000000000403
 30
0.0
 11
138.0752999999999702
 21
85.8257000000000403
 31
0.0
  0
LINE
  5
555
100
AcDbEntity
  8
switchs
 62
256
370
-1
 48
1.0
  6
BYLAYER
100
AcDbLine
 10
138.0752999999999702
 20
85.8257000000000403
 30
0.0
 11
138.0752999999999702
 21
82.7251000000000261
 31
0.0
  0
LINE
  5
556
100
AcDbEntity
  8
switchs
 62
256
370
-1
 48
1.0
  6
BYLAYER
100
AcDbLine
 10
138.0752999999999702
 20
82.7251000000000261
 30
0.0
 11
138.8742999999999483
 21
82.7251000000000261
 31
0.0
  0
LINE
  5
557
100
AcDbEntity
  8
switchs
 62
256
370
-1
 48
1.0
  6
BYLAYER
100
AcDbLine
 10
138.8742999999999483
 20
82.7251000000000261
 30
0.0
 11
138.8742999999999483
 21
81.7247000000000412
 31
0.0
  0
LINE
  5
558
100
AcDbEntity
  8
switchs
 62
256
370
-1
 48
1.0
  6
BYLAYER
100
AcDbLine
 10
138.8742999999999483
 20
81.7247000000000412
 30
0.0
 11
152.8752999999999531
 21
81.7247000000000412
 31
0.0
  0
LINE
  5
559
100
AcDbEntity
  8
switchs
 62
256
370
-1
 48
1.0
  6
BYLAYER
100
AcDbLine
 10
152.8752999999999531
 20
81.7247000000000412
 30
0.0
 11
152.8752999999999531
 21
82.7251000000000261
 31
0.0
  0
LINE
  5
55A
100
AcDbEntity
  8
switchs
 62
256
370
-1
 48
1.0
  6
BYLAYER
100
AcDbLine
 10
152.8752999999999531
 20
82.7251000000000261
 30
0.0
 11
153.6742999999999597
 21
82.7251000000000261
 31
0.0
  0
LINE
  5
55B
100
AcDbEntity
  8
switchs
 62
256
370
-1
 48
1.0
  6
BYLAYER
100
AcDbLine
 10
153.6742999999999597
 20
82.7251000000000261
 30
0.0
 11
153.6742999999999597
 21
85.8257000000000403
 31
0.0
  0
LINE
  5
55C
100
AcDbEntity
  8
switchs
 62
256
370
-1
 48
1.0
  6
BYLAYER
100
AcDbLine
 10
153.6742999999999597
 20
85.8257000000000403
 30
0.0
 11
152.8752999999999531
 21
85.8257000000000403
 31
0.0
  0
LINE
  5
55D
100
AcDbEntity
  8
switchs
 62
256
370
-1
 48
1.0
  6
BYLAYER
100
AcDbLine
 10
152.8752999999999531
 20
85.8257000000000403
 30
0.0
 11
152.8752999999999531
 21
91.6243000000000336
 31
0.0
  0
LINE
  5
55E
100
AcDbEntity
  8
switchs
 62
256
370
-1
 48
1.0
  6
BYLAYER
100
AcDbLine
 10
152.8752999999999531
 20
91.6243000000000336
 30
0.0
 11
153.6742999999999597
 21
91.6243000000000336
 31
0.0
  0
LINE
  5
55F
100
AcDbEntity
  8
switchs
 62
256
370
-1
 48
1.0
  6
BYLAYER
100
AcDbLine
 10
153.6742999999999597
 20
91.6243000000000336
 30
0.0
 11
153.6742999999999597
 21
94.7263000000000375
 31
0.0
  0
LINE
  5
560
100
AcDbEntity
  8
switchs
 62
256
370
-1
 48
1.0
  6
BYLAYER
100
AcDbLine
 10
153.6742999999999597
 20
94.7263000000000375
 30
0.0
 11
152.8752999999999531
 21
94.7263000000000375
 31
0.0
  0
LINE
  5
561
100
AcDbEntity
  8
switchs
 62
256
370
-1
 48
1.0
  6
BYLAYER
100
AcDbLine
 10
152.8752999999999531
 20
94.7263000000000375
 30
0.0
 11
152.8752999999999531
 21
95.725400000000036
 31
0.0
  0
LINE
  5
562
100
AcDbEntity
  8
switchs
 62
256
370
-1
 48
1.0
  6
BYLAYER
100
AcDbLine
 10
152.8752999999999531
 20
95.725400000000036
 30
0.0
 11
138.8742999999999483
 21
95.725400000000036
 31
0.0
  0
LINE
  5
563
100
AcDbEntity
  8
switchs
 62
256
370
-1
 48
1.0
  6
BYLAYER
100
AcDbLine
 10
157.9242999999999597
 20
95.725400000000036
 30
0.0
 11
157.9242999999999597
 21
94.7263000000000375
 31
0.0
  0
LINE
  5
564
100
AcDbEntity
  8
switchs
 62
256
370
-1
 48
1.0
  6
BYLAYER
100
AcDbLine
 10
157.9242999999999597
 20
94.7263000000000375
 30
0.0
 11
157.1252999999999531
 21
94.7263000000000375
 31
0.0
  0
LINE
  5
565
100
AcDbEntity
  8
switchs
 62
256
370
-1
 48
1.0
  6
BYLAYER
100
AcDbLine
 10
157.1252999999999531
 20
94.7263000000000375
 30
0.0
 11
157.1252999999999531
 21
91.6243000000000336
 31
0.0
  0
LINE
  5
566
100
AcDbEntity
  8
switchs
 62
256
370
-1
 48
1.0
  6
BYLAYER
100
AcDbLine
 10
157.1252999999999531
 20
91.6243000000000336
 30
0.0
 11
157.9242999999999597
 21
91.6243000000000336
 31
0.0
  0
LINE
  5
567
100
AcDbEntity
  8
switchs
 62
256
370
-1
 48
1.0
  6
BYLAYER
100
AcDbLine
 10
157.9242999999999597
 20
91.6243000000000336
 30
0.0
 11
157.9242999999999597
 21
85.8257000000000403
 31
0.0
  0
LINE
  5
568
100
AcDbEntity
  8
switchs
 62
256
370
-1
 48
1.0
  6
BYLAYER
100
AcDbLine
 10
157.9242999999999597
 20
85.8257000000000403
 30
0.0
 11
157.1252999999999531
 21
85.8257000000000403
 31
0.0
  0
LINE
  5
569
100
AcDbEntity
  8
switchs
 62
256
370
-1
 48
1.0
  6
BYLAYER
100
AcDbLine
 10
157.1252999999999531
 20
85.8257000000000403
 30
0.0
 11
157.1252999999999531
 21
82.7251000000000261
 31
0.0
  0
LINE
  5
56A
100
AcDbEntity
  8
switchs
 62
256
370
-1
 48
1.0
  6
BYLAYER
100
AcDbLine
 10
157.1252999999999531
 20
82.7251000000000261
 30
0.0
 11
157.9242999999999597
 21
82.7251000000000261
 31
0.0
  0
LINE
  5
56B
100
AcDbEntity
  8
switchs
 62
256
370
-1
 48
1.0
  6
BYLAYER
100
AcDbLine
 10
157.9242999999999597
 20
82.7251000000000261
 30
0.0
 11
157.9242999999999597
 21
81.7247000000000412
 31
0.0
  0
LINE
  5
56C
100
AcDbEntity
  8
switchs
 62
256
370
-1
 48
1.0
  6
BYLAYER
100
AcDbLine
 10
157.9242999999999597
 20
81.7247000000000412
 30
0.0
 11
171.9252999999999645
 21
81.7247000000000412
 31
0.0
  0
LINE
  5
56D
100
AcDbEntity
  8
switchs
 62
256
370
-1
 48
1.0
  6
BYLAYER
100
AcDbLine
 10
171.9252999999999645
 20
81.7247000000000412
 30
0.0
 11
171.9252999999999645
 21
82.7251000000000261
 31
0.0
  0
LINE
  5
56E
100
AcDbEntity
  8
switchs
 62
256
370
-1
 48
1.0
  6
BYLAYER
100
AcDbLine
 10
171.9252999999999645
 20
82.7251000000000261
 30
0.0
 11
172.7242999999999711
 21
82.7251000000000261
 31
0.0
  0
LINE
  5
56F
100
AcDbEntity
  8
switchs
 62
256
370
-1
 48
1.0
  6
BYLAYER
100
AcDbLine
 10
172.7242999999999711
 20
82.7251000000000261
 30
0.0
 11
172.7242999999999711
 21
85.8257000000000403
 31
0.0
  0
LINE
  5
570
100
AcDbEntity
  8
switchs
 62
256
370
-1
 48
1.0
  6
BYLAYER
100
AcDbLine
 10
172.7242999999999711
 20
85.8257000000000403
 30
0.0
 11
171.9252999999999645
 21
85.8257000000000403
 31
0.0
  0
LINE
  5
571
100
AcDbEntity
  8
switchs
 62
256
370
-1
 48
1.0
  6
BYLAYER
100
AcDbLine
 10
171.9252999999999645
 20
85.8257000000000403
 30
0.0
 11
171.9252999999999645
 21
91.6243000000000336
 31
0.0
  0
LINE
  5
572
100
AcDbEntity
  8
switchs
 62
256
370
-1
 48
1.0
  6
BYLAYER
100
AcDbLine
 10
171.9252999999999645
 20
91.6243000000000336
 30
0.0
 11
172.7242999999999711
 21
91.6243000000000336
 31
0.0
  0
LINE
  5
573
100
AcDbEntity
  8
switchs
 62
256
370
-1
 48
1.0
  6
BYLAYER
100
AcDbLine
 10
172.7242999999999711
 20
91.6243000000000336
 30
0.0
 11
172.7242999999999711
 21
94.7263000000000375
 31
0.0
  0
LINE
  5
574
100
AcDbEntity
  8
switchs
 62
256
370
-1
 48
1.0
  6
BYLAYER
100
AcDbLine
 10
172.7242999999999711
 20
94.7263000000000375
 30
0.0
 11
171.9252999999999645
 21
94.7263000000000375
 31
0.0
  0
LINE
  5
575
100
AcDbEntity
  8
switchs
 62
256
370
-1
 48
1.0
  6
BYLAYER
100
AcDbLine
 10
171.9252999999999645
 20
94.7263000000000375
 30
0.0
 11
171.9252999999999645
 21
95.725400000000036
 31
0.0
  0
LINE
  5
576
100
AcDbEntity
  8
switchs
 62
256
370
-1
 48
1.0
  6
BYLAYER
100
AcDbLine
 10
171.9252999999999645
 20
95.725400000000036
 30
0.0
 11
157.9242999999999597
 21
95.725400000000036
 31
0.0
  0
LINE
  5
577
100
AcDbEntity
  8
switchs
 62
256
370
-1
 48
1.0
  6
BYLAYER
100
AcDbLine
 10
176.9742999999999711
 20
95.725400000000036
 30
0.0
 11
176.9742999999999711
 21
94.7263000000000375
 31
0.0
  0
LINE
  5
578
100
AcDbEntity
  8
switchs
 62
256
370
-1
 48
1.0
  6
BYLAYER
100
AcDbLine
 10
176.9742999999999711
 20
94.7263000000000375
 30
0.0
 11
176.1752999999999645
 21
94.7263000000000375
 31
0.0
  0
LINE
  5
579
100
AcDbEntity
  8
switchs
 62
256
370
-1
 48
1.0
  6
BYLAYER
100
AcDbLine
 10
176.1752999999999645
 20
94.7263000000000375
 30
0.0
 11
176.1752999999999645
 21
91.6243000000000336
 31
0.0
  0
LINE
  5
57A
100
AcDbEntity
  8
switchs
 62
256
370
-1
 48
1.0
  6
BYLAYER
100
AcDbLine
 10
176.1752999999999645
 20
91.6243000000000336
 30
0.0
 11
176.9742999999999711
 21
91.6243000000000336
 31
0.0
  0
LINE
  5
57B
100
AcDbEntity
  8
switchs
 62
256
370
-1
 48
1.0
  6
BYLAYER
100
AcDbLine
 10
176.9742999999999711
 20
91.6243000000000336
 30
0.0
 11
176.9742999999999711
 21
85.8257000000000403
 31
0.0
  0
LINE
  5
57C
100
AcDbEntity
  8
switchs
 62
256
370
-1
 48
1.0
  6
BYLAYER
100
AcDbLine
 10
176.9742999999999711
 20
85.8257000000000403
 30
0.0
 11
176.1752999999999645
 21
85.8257000000000403
 31
0.0
  0
LINE
  5
57D
100
AcDbEntity
  8
switchs
 62
256
370
-1
 48
1.0
  6
BYLAYER
100
AcDbLine
 10
176.1752999999999645
 20
85.8257000000000403
 30
0.0
 11
176.1752999999999645
 21
82.7251000000000261
 31
0.0
  0
LINE
  5
57E
100
AcDbEntity
  8
switchs
 62
256
370
-1
 48
1.0
  6
BYLAYER
100
AcDbLine
 10
176.1752999999999645
 20
82.7251000000000261
 30
0.0
 11
176.9742999999999711
 21
82.7251000000000261
 31
0.0
  0
LINE
  5
57F
100
AcDbEntity
  8
switchs
 62
256
370
-1
 48
1.0
  6
BYLAYER
100
AcDbLine
 10
176.9742999999999711
 20
82.7251000000000261
 30
0.0
 11
176.9742999999999711
 21
81.7247000000000412
 31
0.0
  0
LINE
  5
580
100
AcDbEntity
  8
switchs
 62
256
370
-1
 48
1.0
  6
BYLAYER
100
AcDbLine
 10
176.9742999999999711
 20
81.7247000000000412
 30
0.0
 11
190.9752999999999474
 21
81.7247000000000412
 31
0.0
  0
LINE
  5
581
100
AcDbEntity
  8
switchs
 62
256
370
-1
 48
1.0
  6
BYLAYER
100
AcDbLine
 10
190.9752999999999474
 20
81.7247000000000412
 30
0.0
 11
190.9752999999999474
 21
82.7251000000000261
 31
0.0
  0
LINE
  5
582
100
AcDbEntity
  8
switchs
 62
256
370
-1
 48
1.0
  6
BYLAYER
100
AcDbLine
 10
190.9752999999999474
 20
82.7251000000000261
 30
0.0
 11
191.774299999999954
 21
82.7251000000000261
 31
0.0
  0
LINE
  5
583
100
AcDbEntity
  8
switchs
 62
256
370
-1
 48
1.0
  6
BYLAYER
100
AcDbLine
 10
191.774299999999954
 20
82.7251000000000261
 30
0.0
 11
191.774299999999954
 21
85.8257000000000403
 31
0.0
  0
LINE
  5
584
100
AcDbEntity
  8
switchs
 62
256
370
-1
 48
1.0
  6
BYLAYER
100
AcDbLine
 10
191.774299999999954
 20
85.8257000000000403
 30
0.0
 11
190.9752999999999474
 21
85.8257000000000403
 31
0.0
  0
LINE
  5
585
100
AcDbEntity
  8
switchs
 62
256
370
-1
 48
1.0
  6
BYLAYER
100
AcDbLine
 10
190.9752999999999474
 20
85.8257000000000403
 30
0.0
 11
190.9752999999999474
 21
91.6243000000000336
 31
0.0
  0
LINE
  5
586
100
AcDbEntity
  8
switchs
 62
256
370
-1
 48
1.0
  6
BYLAYER
100
AcDbLine
 10
190.9752999999999474
 20
91.6243000000000336
 30
0.0
 11
191.774299999999954
 21
91.6243000000000336
 31
0.0
  0
LINE
  5
587
100
AcDbEntity
  8
switchs
 62
256
370
-1
 48
1.0
  6
BYLAYER
100
AcDbLine
 10
191.774299999999954
 20
91.6243000000000336
 30
0.0
 11
191.774299999999954
 21
94.7263000000000375
 31
0.0
  0
LINE
  5
588
100
AcDbEntity
  8
switchs
 62
256
370
-1
 48
1.0
  6
BYLAYER
100
AcDbLine
 10
191.774299999999954
 20
94.7263000000000375
 30
0.0
 11
190.9752999999999474
 21
94.7263000000000375
 31
0.0
  0
LINE
  5
589
100
AcDbEntity
  8
switchs
 62
256
370
-1
 48
1.0
  6
BYLAYER
100
AcDbLine
 10
190.9752999999999474
 20
94.7263000000000375
 30
0.0
 11
190.9752999999999474
 21
95.725400000000036
 31
0.0
  0
LINE
  5
58A
100
AcDbEntity
  8
switchs
 62
256
370
-1
 48
1.0
  6
BYLAYER
100
AcDbLine
 10
190.9752999999999474
 20
95.725400000000036
 30
0.0
 11
176.9742999999999711
 21
95.725400000000036
 31
0.0
  0
LINE
  5
58B
100
AcDbEntity
  8
switchs
 62
256
370
-1
 48
1.0
  6
BYLAYER
100
AcDbLine
 10
196.024299999999954
 20
95.725400000000036
 30
0.0
 11
196.024299999999954
 21
94.7263000000000375
 31
0.0
  0
LINE
  5
58C
100
AcDbEntity
  8
switchs
 62
256
370
-1
 48
1.0
  6
BYLAYER
100
AcDbLine
 10
196.024299999999954
 20
94.7263000000000375
 30
0.0
 11
195.2252999999999474
 21
94.7263000000000375
 31
0.0
  0
LINE
  5
58D
100
AcDbEntity
  8
switchs
 62
256
370
-1
 48
1.0
  6
BYLAYER
100
AcDbLine
 10
195.2252999999999474
 20
94.7263000000000375
 30
0.0
 11
195.2252999999999474
 21
91.6243000000000336
 31
0.0
  0
LINE
  5
58E
100
AcDbEntity
  8
switchs
 62
256
370
-1
 48
1.0
  6
BYLAYER
100
AcDbLine
 10
195.2252999999999474
 20
91.6243000000000336
 30
0.0
 11
196.024299999999954
 21
91.6243000000000336
 31
0.0
  0
LINE
  5
58F
100
AcDbEntity
  8
switchs
 62
256
370
-1
 48
1.0
  6
BYLAYER
100
AcDbLine
 10
196.024299999999954
 20
91.6243000000000336
 30
0.0
 11
196.024299999999954
 21
85.8257000000000403
 31
0.0
  0
LINE
  5
590
100
AcDbEntity
  8
switchs
 62
256
370
-1
 48
1.0
  6
BYLAYER
100
AcDbLine
 10
196.024299999999954
 20
85.8257000000000403
 30
0.0
 11
195.2252999999999474
 21
85.8257000000000403
 31
0.0
  0
LINE
  5
591
100
AcDbEntity
  8
switchs
 62
256
370
-1
 48
1.0
  6
BYLAYER
100
AcDbLine
 10
195.2252999999999474
 20
85.8257000000000403
 30
0.0
 11
195.2252999999999474
 21
82.7251000000000261
 31
0.0
  0
LINE
  5
592
100
AcDbEntity
  8
switchs
 62
256
370
-1
 48
1.0
  6
BYLAYER
100
AcDbLine
 10
195.2252999999999474
 20
82.7251000000000261
 30
0.0
 11
196.024299999999954
 21
82.7251000000000261
 31
0.0
  0
LINE
  5
593
100
AcDbEntity
  8
switchs
 62
256
370
-1
 48
1.0
  6
BYLAYER
100
AcDbLine
 10
196.024299999999954
 20
82.7251000000000261
 30
0.0
 11
196.024299999999954
 21
81.7247000000000412
 31
0.0
  0
LINE
  5
594
100
AcDbEntity
  8
switchs
 62
256
370
-1
 48
1.0
  6
BYLAYER
100
AcDbLine
 10
196.024299999999954
 20
81.7247000000000412
 30
0.0
 11
210.0252999999999588
 21
81.7247000000000412
 31
0.0
  0
LINE
  5
595
100
AcDbEntity
  8
switchs
 62
256
370
-1
 48
1.0
  6
BYLAYER
100
AcDbLine
 10
210.0252999999999588
 20
81.7247000000000412
 30
0.0
 11
210.0252999999999588
 21
82.7251000000000261
 31
0.0
  0
LINE
  5
596
100
AcDbEntity
  8
switchs
 62
256
370
-1
 48
1.0
  6
BYLAYER
100
AcDbLine
 10
210.0252999999999588
 20
82.7251000000000261
 30
0.0
 11
210.8242999999999654
 21
82.7251000000000261
 31
0.0
  0
LINE
  5
597
100
AcDbEntity
  8
switchs
 62
256
370
-1
 48
1.0
  6
BYLAYER
100
AcDbLine
 10
210.8242999999999654
 20
82.7251000000000261
 30
0.0
 11
210.8242999999999654
 21
85.8257000000000403
 31
0.0
  0
LINE
  5
598
100
AcDbEntity
  8
switchs
 62
256
370
-1
 48
1.0
  6
BYLAYER
100
AcDbLine
 10
210.8242999999999654
 20
85.8257000000000403
 30
0.0
 11
210.0252999999999588
 21
85.8257000000000403
 31
0.0
  0
LINE
  5
599
100
AcDbEntity
  8
switchs
 62
256
370
-1
 48
1.0
  6
BYLAYER
100
AcDbLine
 10
210.0252999999999588
 20
85.8257000000000403
 30
0.0
 11
210.0252999999999588
 21
91.6243000000000336
 31
0.0
  0
LINE
  5
59A
100
AcDbEntity
  8
switchs
 62
256
370
-1
 48
1.0
  6
BYLAYER
100
AcDbLine
 10
210.0252999999999588
 20
91.6243000000000336
 30
0.0
 11
210.8242999999999654
 21
91.6243000000000336
 31
0.0
  0
LINE
  5
59B
100
AcDbEntity
  8
switchs
 62
256
370
-1
 48
1.0
  6
BYLAYER
100
AcDbLine
 10
210.8242999999999654
 20
91.6243000000000336
 30
0.0
 11
210.8242999999999654
 21
94.7263000000000375
 31
0.0
  0
LINE
  5
59C
100
AcDbEntity
  8
switchs
 62
256
370
-1
 48
1.0
  6
BYLAYER
100
AcDbLine
 10
210.8242999999999654
 20
94.7263000000000375
 30
0.0
 11
210.0252999999999588
 21
94.7263000000000375
 31
0.0
  0
LINE
  5
59D
100
AcDbEntity
  8
switchs
 62
256
370
-1
 48
1.0
  6
BYLAYER
100
AcDbLine
 10
210.0252999999999588
 20
94.7263000000000375
 30
0.0
 11
210.0252999999999588
 21
95.725400000000036
 31
0.0
  0
LINE
  5
59E
100
AcDbEntity
  8
switchs
 62
256
370
-1
 48
1.0
  6
BYLAYER
100
AcDbLine
 10
210.0252999999999588
 20
95.725400000000036
 30
0.0
 11
196.024299999999954
 21
95.725400000000036
 31
0.0
  0
LINE
  5
59F
100
AcDbEntity
  8
switchs
 62
256
370
-1
 48
1.0
  6
BYLAYER
100
AcDbLine
 10
215.0742999999999654
 20
95.725400000000036
 30
0.0
 11
215.0742999999999654
 21
94.7263000000000375
 31
0.0
  0
LINE
  5
5A0
100
AcDbEntity
  8
switchs
 62
256
370
-1
 48
1.0
  6
BYLAYER
100
AcDbLine
 10
215.0742999999999654
 20
94.7263000000000375
 30
0.0
 11
214.2752999999999588
 21
94.7263000000000375
 31
0.0
  0
LINE
  5
5A1
100
AcDbEntity
  8
switchs
 62
256
370
-1
 48
1.0
  6
BYLAYER
100
AcDbLine
 10
214.2752999999999588
 20
94.7263000000000375
 30
0.0
 11
214.2752999999999588
 21
91.6243000000000336
 31
0.0
  0
LINE
  5
5A2
100
AcDbEntity
  8
switchs
 62
256
370
-1
 48
1.0
  6
BYLAYER
100
AcDbLine
 10
214.2752999999999588
 20
91.6243000000000336
 30
0.0
 11
215.0742999999999654
 21
91.6243000000000336
 31
0.0
  0
LINE
  5
5A3
100
AcDbEntity
  8
switchs
 62
256
370
-1
 48
1.0
  6
BYLAYER
100
AcDbLine
 10
215.0742999999999654
 20
91.6243000000000336
 30
0.0
 11
215.0742999999999654
 21
85.8257000000000403
 31
0.0
  0
LINE
  5
5A4
100
AcDbEntity
  8
switchs
 62
256
370
-1
 48
1.0
  6
BYLAYER
100
AcDbLine
 10
215.0742999999999654
 20
85.8257000000000403
 30
0.0
 11
214.2752999999999588
 21
85.8257000000000403
 31
0.0
  0
LINE
  5
5A5
100
AcDbEntity
  8
switchs
 62
256
370
-1
 48
1.0
  6
BYLAYER
100
AcDbLine
 10
214.2752999999999588
 20
85.8257000000000403
 30
0.0
 11
214.2752999999999588
 21
82.7251000000000261
 31
0.0
  0
LINE
  5
5A6
100
AcDbEntity
  8
switchs
 62
256
370
-1
 48
1.0
  6
BYLAYER
100
AcDbLine
 10
214.2752999999999588
 20
82.7251000000000261
 30
0.0
 11
215.0742999999999654
 21
82.7251000000000261
 31
0.0
  0
LINE
  5
5A7
100
AcDbEntity
  8
switchs
 62
256
370
-1
 48
1.0
  6
BYLAYER
100
AcDbLine
 10
215.0742999999999654
 20
82.7251000000000261
 30
0.0
 11
215.0742999999999654
 21
81.7247000000000412
 31
0.0
  0
LINE
  5
5A8
100
AcDbEntity
  8
switchs
 62
256
370
-1
 48
1.0
  6
BYLAYER
100
AcDbLine
 10
215.0742999999999654
 20
81.7247000000000412
 30
0.0
 11
229.0752999999999702
 21
81.7247000000000412
 31
0.0
  0
LINE
  5
5A9
100
AcDbEntity
  8
switchs
 62
256
370
-1
 48
1.0
  6
BYLAYER
100
AcDbLine
 10
229.0752999999999702
 20
81.7247000000000412
 30
0.0
 11
229.0752999999999702
 21
82.7251000000000261
 31
0.0
  0
LINE
  5
5AA
100
AcDbEntity
  8
switchs
 62
256
370
-1
 48
1.0
  6
BYLAYER
100
AcDbLine
 10
229.0752999999999702
 20
82.7251000000000261
 30
0.0
 11
229.8742999999999483
 21
82.7251000000000261
 31
0.0
  0
LINE
  5
5AB
100
AcDbEntity
  8
switchs
 62
256
370
-1
 48
1.0
  6
BYLAYER
100
AcDbLine
 10
229.8742999999999483
 20
82.7251000000000261
 30
0.0
 11
229.8742999999999483
 21
85.8257000000000403
 31
0.0
  0
LINE
  5
5AC
100
AcDbEntity
  8
switchs
 62
256
370
-1
 48
1.0
  6
BYLAYER
100
AcDbLine
 10
229.8742999999999483
 20
85.8257000000000403
 30
0.0
 11
229.0752999999999702
 21
85.8257000000000403
 31
0.0
  0
LINE
  5
5AD
100
AcDbEntity
  8
switchs
 62
256
370
-1
 48
1.0
  6
BYLAYER
100
AcDbLine
 10
229.0752999999999702
 20
85.8257000000000403
 30
0.0
 11
229.0752999999999702
 21
91.6243000000000336
 31
0.0
  0
LINE
  5
5AE
100
AcDbEntity
  8
switchs
 62
256
370
-1
 48
1.0
  6
BYLAYER
100
AcDbLine
 10
229.0752999999999702
 20
91.6243000000000336
 30
0.0
 11
229.8742999999999483
 21
91.6243000000000336
 31
0.0
  0
LINE
  5
5AF
100
AcDbEntity
  8
switchs
 62
256
370
-1
 48
1.0
  6
BYLAYER
100
AcDbLine
 10
229.8742999999999483
 20
91.6243000000000336
 30
0.0
 11
229.8742999999999483
 21
94.7263000000000375
 31
0.0
  0
LINE
  5
5B0
100
AcDbEntity
  8
switchs
 62
256
370
-1
 48
1.0
  6
BYLAYER
100
AcDbLine
 10
229.8742999999999483
 20
94.7263000000000375
 30
0.0
 11
229.0752999999999702
 21
94.7263000000000375
 31
0.0
  0
LINE
  5
5B1
100
AcDbEntity
  8
switchs
 62
256
370
-1
 48
1.0
  6
BYLAYER
100
AcDbLine
 10
229.0752999999999702
 20
94.7263000000000375
 30
0.0
 11
229.0752999999999702
 21
95.725400000000036
 31
0.0
  0
LINE
  5
5B2
100
AcDbEntity
  8
switchs
 62
256
370
-1
 48
1.0
  6
BYLAYER
100
AcDbLine
 10
229.0752999999999702
 20
95.725400000000036
 30
0.0
 11
215.0742999999999654
 21
95.725400000000036
 31
0.0
  0
LINE
  5
5B3
100
AcDbEntity
  8
switchs
 62
256
370
-1
 48
1.0
  6
BYLAYER
100
AcDbLine
 10
234.1242999999999483
 20
95.725400000000036
 30
0.0
 11
234.1242999999999483
 21
94.7263000000000375
 31
0.0
  0
LINE
  5
5B4
100
AcDbEntity
  8
switchs
 62
256
370
-1
 48
1.0
  6
BYLAYER
100
AcDbLine
 10
234.1242999999999483
 20
94.7263000000000375
 30
0.0
 11
233.3252999999999702
 21
94.7263000000000375
 31
0.0
  0
LINE
  5
5B5
100
AcDbEntity
  8
switchs
 62
256
370
-1
 48
1.0
  6
BYLAYER
100
AcDbLine
 10
233.3252999999999702
 20
94.7263000000000375
 30
0.0
 11
233.3252999999999702
 21
91.6243000000000336
 31
0.0
  0
LINE
  5
5B6
100
AcDbEntity
  8
switchs
 62
256
370
-1
 48
1.0
  6
BYLAYER
100
AcDbLine
 10
233.3252999999999702
 20
91.6243000000000336
 30
0.0
 11
234.1242999999999483
 21
91.6243000000000336
 31
0.0
  0
LINE
  5
5B7
100
AcDbEntity
  8
switchs
 62
256
370
-1
 48
1.0
  6
BYLAYER
100
AcDbLine
 10
234.1242999999999483
 20
91.6243000000000336
 30
0.0
 11
234.1242999999999483
 21
85.8257000000000403
 31
0.0
  0
LINE
  5
5B8
100
AcDbEntity
  8
switchs
 62
256
370
-1
 48
1.0
  6
BYLAYER
100
AcDbLine
 10
234.1242999999999483
 20
85.8257000000000403
 30
0.0
 11
233.3252999999999702
 21
85.8257000000000403
 31
0.0
  0
LINE
  5
5B9
100
AcDbEntity
  8
switchs
 62
256
370
-1
 48
1.0
  6
BYLAYER
100
AcDbLine
 10
233.3252999999999702
 20
85.8257000000000403
 30
0.0
 11
233.3252999999999702
 21
82.7251000000000261
 31
0.0
  0
LINE
  5
5BA
100
AcDbEntity
  8
switchs
 62
256
370
-1
 48
1.0
  6
BYLAYER
100
AcDbLine
 10
233.3252999999999702
 20
82.7251000000000261
 30
0.0
 11
234.1242999999999483
 21
82.7251000000000261
 31
0.0
  0
LINE
  5
5BB
100
AcDbEntity
  8
switchs
 62
256
370
-1
 48
1.0
  6
BYLAYER
100
AcDbLine
 10
234.1242999999999483
 20
82.7251000000000261
 30
0.0
 11
234.1242999999999483
 21
81.7247000000000412
 31
0.0
  0
LINE
  5
5BC
100
AcDbEntity
  8
switchs
 62
256
370
-1
 48
1.0
  6
BYLAYER
100
AcDbLine
 10
234.1242999999999483
 20
81.7247000000000412
 30
0.0
 11
248.1252999999999531
 21
81.7247000000000412
 31
0.0
  0
LINE
  5
5BD
100
AcDbEntity
  8
switchs
 62
256
370
-1
 48
1.0
  6
BYLAYER
100
AcDbLine
 10
248.1252999999999531
 20
81.7247000000000412
 30
0.0
 11
248.1252999999999531
 21
82.7251000000000261
 31
0.0
  0
LINE
  5
5BE
100
AcDbEntity
  8
switchs
 62
256
370
-1
 48
1.0
  6
BYLAYER
100
AcDbLine
 10
248.1252999999999531
 20
82.7251000000000261
 30
0.0
 11
248.9242999999999881
 21
82.7251000000000261
 31
0.0
  0
LINE
  5
5BF
100
AcDbEntity
  8
switchs
 62
256
370
-1
 48
1.0
  6
BYLAYER
100
AcDbLine
 10
248.9242999999999881
 20
82.7251000000000261
 30
0.0
 11
248.9242999999999881
 21
85.8257000000000403
 31
0.0
  0
LINE
  5
5C0
100
AcDbEntity
  8
switchs
 62
256
370
-1
 48
1.0
  6
BYLAYER
100
AcDbLine
 10
248.9242999999999881
 20
85.8257000000000403
 30
0.0
 11
248.1252999999999531
 21
85.8257000000000403
 31
0.0
  0
LINE
  5
5C1
100
AcDbEntity
  8
switchs
 62
256
370
-1
 48
1.0
  6
BYLAYER
100
AcDbLine
 10
248.1252999999999531
 20
85.8257000000000403
 30
0.0
 11
248.1252999999999531
 21
91.6243000000000336
 31
0.0
  0
LINE
  5
5C2
100
AcDbEntity
  8
switchs
 62
256
370
-1
 48
1.0
  6
BYLAYER
100
AcDbLine
 10
248.1252999999999531
 20
91.6243000000000336
 30
0.0
 11
248.9242999999999881
 21
91.6243000000000336
 31
0.0
  0
LINE
  5
5C3
100
AcDbEntity
  8
switchs
 62
256
370
-1
 48
1.0
  6
BYLAYER
100
AcDbLine
 10
248.9242999999999881
 20
91.6243000000000336
 30
0.0
 11
248.9242999999999881
 21
94.7263000000000375
 31
0.0
  0
LINE
  5
5C4
100
AcDbEntity
  8
switchs
 62
256
370
-1
 48
1.0
  6
BYLAYER
100
AcDbLine
 10
248.9242999999999881
 20
94.7263000000000375
 30
0.0
 11
248.1252999999999531
 21
94.7263000000000375
 31
0.0
  0
LINE
  5
5C5
100
AcDbEntity
  8
switchs
 62
256
370
-1
 48
1.0
  6
BYLAYER
100
AcDbLine
 10
248.1252999999999531
 20
94.7263000000000375
 30
0.0
 11
248.1252999999999531
 21
95.725400000000036
 31
0.0
  0
LINE
  5
5C6
100
AcDbEntity
  8
switchs
 62
256
370
-1
 48
1.0
  6
BYLAYER
100
AcDbLine
 10
248.1252999999999531
 20
95.725400000000036
 30
0.0
 11
234.1242999999999483
 21
95.725400000000036
 31
0.0
  0
LINE
  5
5C7
100
AcDbEntity
  8
switchs
 62
256
370
-1
 48
1.0
  6
BYLAYER
100
AcDbLine
 10
253.1742999999999313
 20
95.725400000000036
 30
0.0
 11
253.1742999999999313
 21
94.7263000000000375
 31
0.0
  0
LINE
  5
5C8
100
AcDbEntity
  8
switchs
 62
256
370
-1
 48
1.0
  6
BYLAYER
100
AcDbLine
 10
253.1742999999999313
 20
94.7263000000000375
 30
0.0
 11
252.3752999999999531
 21
94.7263000000000375
 31
0.0
  0
LINE
  5
5C9
100
AcDbEntity
  8
switchs
 62
256
370
-1
 48
1.0
  6
BYLAYER
100
AcDbLine
 10
252.3752999999999531
 20
94.7263000000000375
 30
0.0
 11
252.3752999999999531
 21
91.6243000000000336
 31
0.0
  0
LINE
  5
5CA
100
AcDbEntity
  8
switchs
 62
256
370
-1
 48
1.0
  6
BYLAYER
100
AcDbLine
 10
252.3752999999999531
 20
91.6243000000000336
 30
0.0
 11
253.1742999999999313
 21
91.6243000000000336
 31
0.0
  0
LINE
  5
5CB
100
AcDbEntity
  8
switchs
 62
256
370
-1
 48
1.0
  6
BYLAYER
100
AcDbLine
 10
253.1742999999999313
 20
91.6243000000000336
 30
0.0
 11
253.1742999999999313
 21
85.8257000000000403
 31
0.0
  0
LINE
  5
5CC
100
AcDbEntity
  8
switchs
 62
256
370
-1
 48
1.0
  6
BYLAYER
100
AcDbLine
 10
253.1742999999999313
 20
85.8257000000000403
 30
0.0
 11
252.3752999999999531
 21
85.8257000000000403
 31
0.0
  0
LINE
  5
5CD
100
AcDbEntity
  8
switchs
 62
256
370
-1
 48
1.0
  6
BYLAYER
100
AcDbLine
 10
252.3752999999999531
 20
85.8257000000000403
 30
0.0
 11
252.3752999999999531
 21
82.7251000000000261
 31
0.0
  0
LINE
  5
5CE
100
AcDbEntity
  8
switchs
 62
256
370
-1
 48
1.0
  6
BYLAYER
100
AcDbLine
 10
252.3752999999999531
 20
82.7251000000000261
 30
0.0
 11
253.1742999999999313
 21
82.7251000000000261
 31
0.0
  0
LINE
  5
5CF
100
AcDbEntity
  8
switchs
 62
256
370
-1
 48
1.0
  6
BYLAYER
100
AcDbLine
 10
253.1742999999999313
 20
82.7251000000000261
 30
0.0
 11
253.1742999999999313
 21
81.7247000000000412
 31
0.0
  0
LINE
  5
5D0
100
AcDbEntity
  8
switchs
 62
256
370
-1
 48
1.0
  6
BYLAYER
100
AcDbLine
 10
253.1742999999999313
 20
81.7247000000000412
 30
0.0
 11
267.1752999999999929
 21
81.7247000000000412
 31
0.0
  0
LINE
  5
5D1
100
AcDbEntity
  8
switchs
 62
256
370
-1
 48
1.0
  6
BYLAYER
100
AcDbLine
 10
267.1752999999999929
 20
81.7247000000000412
 30
0.0
 11
267.1752999999999929
 21
82.7251000000000261
 31
0.0
  0
LINE
  5
5D2
100
AcDbEntity
  8
switchs
 62
256
370
-1
 48
1.0
  6
BYLAYER
100
AcDbLine
 10
267.1752999999999929
 20
82.7251000000000261
 30
0.0
 11
267.9742999999999711
 21
82.7251000000000261
 31
0.0
  0
LINE
  5
5D3
100
AcDbEntity
  8
switchs
 62
256
370
-1
 48
1.0
  6
BYLAYER
100
AcDbLine
 10
267.9742999999999711
 20
82.7251000000000261
 30
0.0
 11
267.9742999999999711
 21
85.8257000000000403
 31
0.0
  0
LINE
  5
5D4
100
AcDbEntity
  8
switchs
 62
256
370
-1
 48
1.0
  6
BYLAYER
100
AcDbLine
 10
267.9742999999999711
 20
85.8257000000000403
 30
0.0
 11
267.1752999999999929
 21
85.8257000000000403
 31
0.0
  0
LINE
  5
5D5
100
AcDbEntity
  8
switchs
 62
256
370
-1
 48
1.0
  6
BYLAYER
100
AcDbLine
 10
267.1752999999999929
 20
85.8257000000000403
 30
0.0
 11
267.1752999999999929
 21
91.6243000000000336
 31
0.0
  0
LINE
  5
5D6
100
AcDbEntity
  8
switchs
 62
256
370
-1
 48
1.0
  6
BYLAYER
100
AcDbLine
 10
267.1752999999999929
 20
91.6243000000000336
 30
0.0
 11
267.9742999999999711
 21
91.6243000000000336
 31
0.0
  0
LINE
  5
5D7
100
AcDbEntity
  8
switchs
 62
256
370
-1
 48
1.0
  6
BYLAYER
100
AcDbLine
 10
267.9742999999999711
 20
91.6243000000000336
 30
0.0
 11
267.9742999999999711
 21
94.7263000000000375
 31
0.0
  0
LINE
  5
5D8
100
AcDbEntity
  8
switchs
 62
256
370
-1
 48
1.0
  6
BYLAYER
100
AcDbLine
 10
267.9742999999999711
 20
94.7263000000000375
 30
0.0
 11
267.1752999999999929
 21
94.7263000000000375
 31
0.0
  0
LINE
  5
5D9
100
AcDbEntity
  8
switchs
 62
256
370
-1
 48
1.0
  6
BYLAYER
100
AcDbLine
 10
267.1752999999999929
 20
94.7263000000000375
 30
0.0
 11
267.1752999999999929
 21
95.725400000000036
 31
0.0
  0
LINE
  5
5DA
100
AcDbEntity
  8
switchs
 62
256
370
-1
 48
1.0
  6
BYLAYER
100
AcDbLine
 10
267.1752999999999929
 20
95.725400000000036
 30
0.0
 11
253.1742999999999313
 21
95.725400000000036
 31
0.0
  0
LINE
  5
5DB
100
AcDbEntity
  8
switchs
 62
256
370
-1
 48
1.0
  6
BYLAYER
100
AcDbLine
 10
272.2242999999999711
 20
95.725400000000036
 30
0.0
 11
272.2242999999999711
 21
94.7263000000000375
 31
0.0
  0
LINE
  5
5DC
100
AcDbEntity
  8
switchs
 62
256
370
-1
 48
1.0
  6
BYLAYER
100
AcDbLine
 10
272.2242999999999711
 20
94.7263000000000375
 30
0.0
 11
271.4252999999999929
 21
94.7263000000000375
 31
0.0
  0
LINE
  5
5DD
100
AcDbEntity
  8
switchs
 62
256
370
-1
 48
1.0
  6
BYLAYER
100
AcDbLine
 10
271.4252999999999929
 20
94.7263000000000375
 30
0.0
 11
271.4252999999999929
 21
91.6243000000000336
 31
0.0
  0
LINE
  5
5DE
100
AcDbEntity
  8
switchs
 62
256
370
-1
 48
1.0
  6
BYLAYER
100
AcDbLine
 10
271.4252999999999929
 20
91.6243000000000336
 30
0.0
 11
272.2242999999999711
 21
91.6243000000000336
 31
0.0
  0
LINE
  5
5DF
100
AcDbEntity
  8
switchs
 62
256
370
-1
 48
1.0
  6
BYLAYER
100
AcDbLine
 10
272.2242999999999711
 20
91.6243000000000336
 30
0.0
 11
272.2242999999999711
 21
85.8257000000000403
 31
0.0
  0
LINE
  5
5E0
100
AcDbEntity
  8
switchs
 62
256
370
-1
 48
1.0
  6
BYLAYER
100
AcDbLine
 10
272.2242999999999711
 20
85.8257000000000403
 30
0.0
 11
271.4252999999999929
 21
85.8257000000000403
 31
0.0
  0
LINE
  5
5E1
100
AcDbEntity
  8
switchs
 62
256
370
-1
 48
1.0
  6
BYLAYER
100
AcDbLine
 10
271.4252999999999929
 20
85.8257000000000403
 30
0.0
 11
271.4252999999999929
 21
82.7251000000000261
 31
0.0
  0
LINE
  5
5E2
100
AcDbEntity
  8
switchs
 62
256
370
-1
 48
1.0
  6
BYLAYER
100
AcDbLine
 10
271.4252999999999929
 20
82.7251000000000261
 30
0.0
 11
272.2242999999999711
 21
82.7251000000000261
 31
0.0
  0
LINE
  5
5E3
100
AcDbEntity
  8
switchs
 62
256
370
-1
 48
1.0
  6
BYLAYER
100
AcDbLine
 10
272.2242999999999711
 20
82.7251000000000261
 30
0.0
 11
272.2242999999999711
 21
81.7247000000000412
 31
0.0
  0
LINE
  5
5E4
100
AcDbEntity
  8
switchs
 62
256
370
-1
 48
1.0
  6
BYLAYER
100
AcDbLine
 10
272.2242999999999711
 20
81.7247000000000412
 30
0.0
 11
286.2253000000000043
 21
81.7247000000000412
 31
0.0
  0
LINE
  5
5E5
100
AcDbEntity
  8
switchs
 62
256
370
-1
 48
1.0
  6
BYLAYER
100
AcDbLine
 10
286.2253000000000043
 20
81.7247000000000412
 30
0.0
 11
286.2253000000000043
 21
82.7251000000000261
 31
0.0
  0
LINE
  5
5E6
100
AcDbEntity
  8
switchs
 62
256
370
-1
 48
1.0
  6
BYLAYER
100
AcDbLine
 10
286.2253000000000043
 20
82.7251000000000261
 30
0.0
 11
287.0242999999999824
 21
82.7251000000000261
 31
0.0
  0
LINE
  5
5E7
100
AcDbEntity
  8
switchs
 62
256
370
-1
 48
1.0
  6
BYLAYER
100
AcDbLine
 10
287.0242999999999824
 20
82.7251000000000261
 30
0.0
 11
287.0242999999999824
 21
85.8257000000000403
 31
0.0
  0
LINE
  5
5E8
100
AcDbEntity
  8
switchs
 62
256
370
-1
 48
1.0
  6
BYLAYER
100
AcDbLine
 10
287.0242999999999824
 20
85.8257000000000403
 30
0.0
 11
286.2253000000000043
 21
85.8257000000000403
 31
0.0
  0
LINE
  5
5E9
100
AcDbEntity
  8
switchs
 62
256
370
-1
 48
1.0
  6
BYLAYER
100
AcDbLine
 10
286.2253000000000043
 20
85.8257000000000403
 30
0.0
 11
286.2253000000000043
 21
91.6243000000000336
 31
0.0
  0
LINE
  5
5EA
100
AcDbEntity
  8
switchs
 62
256
370
-1
 48
1.0
  6
BYLAYER
100
AcDbLine
 10
286.2253000000000043
 20
91.6243000000000336
 30
0.0
 11
287.0242999999999824
 21
91.6243000000000336
 31
0.0
  0
LINE
  5
5EB
100
AcDbEntity
  8
switchs
 62
256
370
-1
 48
1.0
  6
BYLAYER
100
AcDbLine
 10
287.0242999999999824
 20
91.6243000000000336
 30
0.0
 11
287.0242999999999824
 21
94.7263000000000375
 31
0.0
  0
LINE
  5
5EC
100
AcDbEntity
  8
switchs
 62
256
370
-1
 48
1.0
  6
BYLAYER
100
AcDbLine
 10
287.0242999999999824
 20
94.7263000000000375
 30
0.0
 11
286.2253000000000043
 21
94.7263000000000375
 31
0.0
  0
LINE
  5
5ED
100
AcDbEntity
  8
switchs
 62
256
370
-1
 48
1.0
  6
BYLAYER
100
AcDbLine
 10
286.2253000000000043
 20
94.7263000000000375
 30
0.0
 11
286.2253000000000043
 21
95.725400000000036
 31
0.0
  0
LINE
  5
5EE
100
AcDbEntity
  8
switchs
 62
256
370
-1
 48
1.0
  6
BYLAYER
100
AcDbLine
 10
286.2253000000000043
 20
95.725400000000036
 30
0.0
 11
272.2242999999999711
 21
95.725400000000036
 31
0.0
  0
LINE
  5
5EF
100
AcDbEntity
  8
switchs
 62
256
370
-1
 48
1.0
  6
BYLAYER
100
AcDbLine
 10
12.6682999999999701
 20
57.6254000000000275
 30
0.0
 11
7.9071599999999869
 21
57.6254000000000417
 31
0.0
  0
LINE
  5
5F0
100
AcDbEntity
  8
switchs
 62
256
370
-1
 48
1.0
  6
BYLAYER
100
AcDbLine
 10
7.9071599999999869
 20
57.6254000000000417
 30
0.0
 11
7.9071599999999869
 21
56.6263000000000432
 31
0.0
  0
LINE
  5
5F1
100
AcDbEntity
  8
switchs
 62
256
370
-1
 48
1.0
  6
BYLAYER
100
AcDbLine
 10
7.9071599999999869
 20
56.6263000000000432
 30
0.0
 11
7.106559999999984
 21
56.6263000000000432
 31
0.0
  0
LINE
  5
5F2
100
AcDbEntity
  8
switchs
 62
256
370
-1
 48
1.0
  6
BYLAYER
100
AcDbLine
 10
7.106559999999984
 20
56.6263000000000432
 30
0.0
 11
7.106559999999984
 21
53.5258000000000322
 31
0.0
  0
LINE
  5
5F3
100
AcDbEntity
  8
switchs
 62
256
370
-1
 48
1.0
  6
BYLAYER
100
AcDbLine
 10
7.106559999999984
 20
53.5258000000000322
 30
0.0
 11
7.9071599999999869
 21
53.525800000000018
 31
0.0
  0
LINE
  5
5F4
100
AcDbEntity
  8
switchs
 62
256
370
-1
 48
1.0
  6
BYLAYER
100
AcDbLine
 10
7.9071599999999869
 20
53.525800000000018
 30
0.0
 11
7.9071599999999869
 21
47.725700000000046
 31
0.0
  0
LINE
  5
5F5
100
AcDbEntity
  8
switchs
 62
256
370
-1
 48
1.0
  6
BYLAYER
100
AcDbLine
 10
7.9071599999999869
 20
47.725700000000046
 30
0.0
 11
7.106559999999984
 21
47.7257000000000318
 31
0.0
  0
LINE
  5
5F6
100
AcDbEntity
  8
switchs
 62
256
370
-1
 48
1.0
  6
BYLAYER
100
AcDbLine
 10
7.106559999999984
 20
47.7257000000000318
 30
0.0
 11
7.106559999999984
 21
44.6266000000000247
 31
0.0
  0
LINE
  5
5F7
100
AcDbEntity
  8
switchs
 62
256
370
-1
 48
1.0
  6
BYLAYER
100
AcDbLine
 10
7.106559999999984
 20
44.6266000000000247
 30
0.0
 11
7.9071599999999869
 21
44.6266000000000247
 31
0.0
  0
LINE
  5
5F8
100
AcDbEntity
  8
switchs
 62
256
370
-1
 48
1.0
  6
BYLAYER
100
AcDbLine
 10
7.9071599999999869
 20
44.6266000000000247
 30
0.0
 11
7.9071599999999869
 21
43.6261000000000365
 31
0.0
  0
LINE
  5
5F9
100
AcDbEntity
  8
switchs
 62
256
370
-1
 48
1.0
  6
BYLAYER
100
AcDbLine
 10
7.9071599999999869
 20
43.6261000000000365
 30
0.0
 11
12.6682999999999701
 21
43.6247000000000469
 31
0.0
  0
LINE
  5
5FA
100
AcDbEntity
  8
switchs
 62
256
370
-1
 48
1.0
  6
BYLAYER
100
AcDbLine
 10
92.1756599999999793
 20
14.8263000000000318
 30
0.0
 11
138.875759999999957
 21
14.8263000000000318
 31
0.0
  0
LINE
  5
5FB
100
AcDbEntity
  8
switchs
 62
256
370
-1
 48
1.0
  6
BYLAYER
100
AcDbLine
 10
92.1756599999999935
 20
10.2265000000000441
 30
0.0
 11
138.875759999999957
 21
10.2265000000000441
 31
0.0
  0
LINE
  5
5FC
100
AcDbEntity
  8
switchs
 62
256
370
-1
 48
1.0
  6
BYLAYER
100
AcDbLine
 10
152.875759999999957
 20
14.8263000000000318
 30
0.0
 11
180.5247599999999295
 21
14.8263000000000176
 31
0.0
  0
LINE
  5
5FD
100
AcDbEntity
  8
switchs
 62
256
370
-1
 48
1.0
  6
BYLAYER
100
AcDbLine
 10
180.5247599999999579
 20
10.2265000000000441
 30
0.0
 11
152.875759999999957
 21
10.2265000000000441
 31
0.0
  0
ARC
  5
5FE
100
AcDbEntity
  8
switchs
 62
256
370
-1
 48
1.0
  6
BYLAYER
100
AcDbCircle
 10
-1.0013714543804753
 20
-0.9999936076872586
 30
0.0
 40
2.0
100
AcDbArc
 50
180.013361155687079
 51
270.0261112455131638
  0
ARC
  5
5FF
100
AcDbEntity
  8
switchs
 62
256
370
-1
 48
1.0
  6
BYLAYER
100
AcDbCircle
 10
-0.9999936500272426
 20
102.2513000543706028
 30
0.0
 40
2.0
100
AcDbArc
 50
90.0133599427292097
 51
180.0286494485499986
  0
ARC
  5
600
100
AcDbEntity
  8
switchs
 62
256
370
-1
 48
1.0
  6
BYLAYER
100
AcDbCircle
 10
294.7512999999999579
 20
102.2503000000000384
 30
0.0
 40
2.0
100
AcDbArc
 50
0.0
 51
90.0
  0
ARC
  5
601
100
AcDbEntity
  8
switchs
 62
256
370
-1
 48
1.0
  6
BYLAYER
100
AcDbCircle
 10
294.7513000544288388
 20
-0.9999933999999655
 30
0.0
 40
2.0
100
AcDbArc
 50
269.9999984407273814
 51
359.9866328945198575
  0
CIRCLE
  5
602
100
AcDbEntity
  8
switchs
 62
256
370
-1
 48
1.0
  6
BYLAYER
100
AcDbCircle
 10
293.751299999999901
 20
101.2503000000000242
 30
0.0
 40
1.6000000000000001
  0
CIRCLE
  5
603
100
AcDbEntity
  8
switchs
 62
256
370
-1
 48
1.0
  6
BYLAYER
100
AcDbCircle
 10
146.8752999999999531
 20
101.2503000000000384
 30
0.0
 40
1.6000000000000001
  0
CIRCLE
  5
604
100
AcDbEntity
  8
switchs
 62
256
370
-1
 48
1.0
  6
BYLAYER
100
AcDbCircle
 10
-0.0000000000000178
 20
101.2503000000000242
 30
0.0
 40
1.6000000000000001
  0
CIRCLE
  5
605
100
AcDbEntity
  8
switchs
 62
256
370
-1
 48
1.0
  6
BYLAYER
100
AcDbCircle
 10
0.0
 20
0.0
 30
0.0
 40
1.6000000000000001
  0
CIRCLE
  5
606
100
AcDbEntity
  8
switchs
 62
256
370
-1
 48
1.0
  6
BYLAYER
100
AcDbCircle
 10
146.8752999999999247
 20
-0.0000000000000284
 30
0.0
 40
1.6000000000000001
  0
CIRCLE
  5
607
100
AcDbEntity
  8
switchs
 62
256
370
-1
 48
1.0
  6
BYLAYER
100
AcDbCircle
 10
293.7513000000000147
 20
-0.0000000000000853
 30
0.0
 40
1.6000000000000001
  0
ARC
  5
608
100
AcDbEntity
  8
top
 62
256
370
-1
 48
1.0
  6
BYLAYER
100
AcDbCircle
 10
294.7513000544288388
 20
-0.9999933999999939
 30
0.0
 40
2.0
100
AcDbArc
 50
269.9999984407273814
 51
359.9866328945198575
  0
ARC
  5
609
100
AcDbEntity
  8
top
 62
256
370
-1
 48
1.0
  6
BYLAYER
100
AcDbCircle
 10
-1.0013714543804895
 20
-0.9999936076872729
 30
0.0
 40
2.0
100
AcDbArc
 50
180.013361155687079
 51
270.0261112455132775
  0
ARC
  5
60A
100
AcDbEntity
  8
top
 62
256
370
-1
 48
1.0
  6
BYLAYER
100
AcDbCircle
 10
-0.9999936500272497
 20
102.2513000543705743
 30
0.0
 40
2.0
100
AcDbArc
 50
90.0133599427293092
 51
180.0286494485499986
  0
ARC
  5
60B
100
AcDbEntity
  8
top
 62
256
370
-1
 48
1.0
  6
BYLAYER
100
AcDbCircle
 10
294.7513000000000147
 20
102.25030000000001
 30
0.0
 40
2.0
100
AcDbArc
 50
0.0
 51
90.0
  0
CIRCLE
  5
60C
100
AcDbEntity
  8
top
 62
256
370
-1
 48
1.0
  6
BYLAYER
100
AcDbCircle
 10
146.8752999999999815
 20
101.2502999999999957
 30
0.0
 40
1.6000000000000001
  0
CIRCLE
  5
60D
100
AcDbEntity
  8
top
 62
256
370
-1
 48
1.0
  6
BYLAYER
100
AcDbCircle
 10
-0.0000000000000284
 20
101.2502999999999957
 30
0.0
 40
1.6000000000000001
  0
CIRCLE
  5
60E
100
AcDbEntity
  8
top
 62
256
370
-1
 48
1.0
  6
BYLAYER
100
AcDbCircle
 10
0.0
 20
0.0
 30
0.0
 40
1.6000000000000001
  0
CIRCLE
  5
60F
100
AcDbEntity
  8
top
 62
256
370
-1
 48
1.0
  6
BYLAYER
100
AcDbCircle
 10
146.8752999999999247
 20
0.0000000000000142
 30
0.0
 40
1.6000000000000001
  0
CIRCLE
  5
610
100
AcDbEntity
  8
top
 62
256
370
-1
 48
1.0
  6
BYLAYER
100
AcDbCircle
 10
293.7513000000000147
 20
-0.0000000000000995
 30
0.0
 40
1.6000000000000001
  0
CIRCLE
  5
611
100
AcDbEntity
  8
top
 62
256
370
-1
 48
1.0
  6
BYLAYER
100
AcDbCircle
 10
293.7513000000000147
 20
101.25030000000001
 30
0.0
 40
1.6000000000000001
  0
CIRCLE
  5
612
100
AcDbEntity
  8
foot
 62
256
370
-1
 48
1.0
  6
BYLAYER
100
AcDbCircle
 10
293.751299999999901
 20
101.2502999999999389
 30
0.0
 40
1.2
  0
CIRCLE
  5
613
100
AcDbEntity
  8
foot
 62
256
370
-1
 48
1.0
  6
BYLAYER
100
AcDbCircle
 10
-0.0000000000000284
 20
101.2502999999999957
 30
0.0
 40
1.2
  0
CIRCLE
  5
614
100
AcDbEntity
  8
foot
 62
256
370
-1
 48
1.0
  6
BYLAYER
100
AcDbCircle
 10
146.8752999999999531
 20
101.2503000000000384
 30
0.0
 40
1.2
  0
ARC
  5
615
100
AcDbEntity
  8
foot
 62
256
370
-1
 48
1.0
  6
BYLAYER
100
AcDbCircle
 10
-1.0000000000001421
 20
100.2502999999999957
 30
0.0
 40
2.0
100
AcDbArc
 50
180.0
 51
270.0
  0
ARC
  5
616
100
AcDbEntity
  8
foot
 62
256
370
-1
 48
1.0
  6
BYLAYER
100
AcDbCircle
 10
294.7513000000000147
 20
102.25030000000001
 30
0.0
 40
2.0
100
AcDbArc
 50
0.0
 51
90.0
  0
ARC
  5
617
100
AcDbEntity
  8
foot
 62
256
370
-1
 48
1.0
  6
BYLAYER
100
AcDbCircle
 10
294.7512936500271508
 20
100.2492999456293461
 30
0.0
 40
2.0
100
AcDbArc
 50
270.0133599427292665
 51
0.0286494485499878
  0
ARC
  5
618
100
AcDbEntity
  8
foot
 62
256
370
-1
 48
1.0
  6
BYLAYER
100
AcDbCircle
 10
-0.9999936500272524
 20
102.2513000543705743
 30
0.0
 40
2.0
100
AcDbArc
 50
90.0133599427292239
 51
180.0286494485499986
  0
LINE
  5
619
100
AcDbEntity
  8
foot
 62
256
370
-1
 48
1.0
  6
BYLAYER
100
AcDbLine
 10
294.7517599999998765
 20
98.2492999999995931
 30
0.0
 11
-1.0000000000001421
 21
98.2502999999991431
 31
0.0
  0
LINE
  5
61A
100
AcDbEntity
  8
foot
 62
256
370
-1
 48
1.0
  6
BYLAYER
100
AcDbLine
 10
-1.0004600000000321
 20
104.2513000000000005
 30
0.0
 11
294.7513000000000147
 21
104.25030000000001
 31
0.0
  0
LINE
  5
61B
100
AcDbEntity
  8
foot
 62
256
370
-1
 48
1.0
  6
BYLAYER
100
AcDbLine
 10
-2.9999934000000508
 20
102.2503000000000952
 30
0.0
 11
-3.0000000000001421
 21
100.2502999999999957
 31
0.0
  0
LINE
  5
61C
100
AcDbEntity
  8
foot
 62
256
370
-1
 48
1.0
  6
BYLAYER
100
AcDbLine
 10
296.7513000000000147
 20
102.25030000000001
 30
0.0
 11
296.7512933999999518
 21
100.2502999999998252
 31
0.0
  0
CIRCLE
  5
61D
100
AcDbEntity
  8
bottom
 62
256
370
-1
 48
1.0
  6
BYLAYER
100
AcDbCircle
 10
0.0
 20
101.25030000000001
 30
0.0
 40
1.2
  0
CIRCLE
  5
61E
100
AcDbEntity
  8
bottom
 62
256
370
-1
 48
1.0
  6
BYLAYER
100
AcDbCircle
 10
146.8752999999999815
 20
101.2502999999999815
 30
0.0
 40
1.2
  0
CIRCLE
  5
61F
100
AcDbEntity
  8
bottom
 62
256
370
-1
 48
1.0
  6
BYLAYER
100
AcDbCircle
 10
293.7513000000000716
 20
101.2503000000000952
 30
0.0
 40
1.2
  0
LINE
  5
620
100
AcDbEntity
  8
bottom
 62
256
370
-1
 48
1.0
  6
BYLAYER
100
AcDbLine
 10
14.9062999999999874
 20
101.2512919005711325
 30
0.0
 11
14.9062999999999874
 21
101.2512919005711325
 31
0.0
  0
CIRCLE
  5
621
100
AcDbEntity
  8
bottom
 62
256
370
-1
 48
1.0
  6
BYLAYER
100
AcDbCircle
 10
10.9062999999999874
 20
101.2512919005711325
 30
0.0
 40
1.6000000000000001
  0
CIRCLE
  5
622
100
AcDbEntity
  8
bottom
 62
256
370
-1
 48
1.0
  6
BYLAYER
100
AcDbCircle
 10
32.9062999999999874
 20
101.2512919005711325
 30
0.0
 40
1.6000000000000001
  0
CIRCLE
  5
623
100
AcDbEntity
  8
open
 62
256
370
-1
 48
1.0
  6
BYLAYER
100
AcDbCircle
 10
10.9062999999999874
 20
101.2512919005711325
 30
0.0
 40
1.2
  0
CIRCLE
  5
624
100
AcDbEntity
  8
open
 62
256
370
-1
 48
1.0
  6
BYLAYER
100
AcDbCircle
 10
32.9062999999999874
 20
101.2512919005711325
 30
0.0
 40
1.2
  0
ENDSEC
  0
SECTION
  2
OBJECTS
  0
DICTIONARY
  5
C
100
AcDbDictionary
280
0
281
1
  3
ACAD_GROUP
350
D
  3
ACAD_LAYOUT
350
1A
  3
ACAD_MLINESTYLE
350
17
  3
ACAD_PLOTSETTINGS
350
19
  3
ACAD_PLOTSTYLENAME
350
E
  3
AcDbVariableDictionary
350
625
  3
QCAD_OBJECTS
350
626
  0
DICTIONARY
  5
D
100
AcDbDictionary
280
0
281
1
  0
ACDBDICTIONARYWDFLT
  5
E
100
AcDbDictionary
281
1
  3
Normal
350
F
100
AcDbDictionaryWithDefault
340
F
  0
ACDBPLACEHOLDER
  5
F
  0
DICTIONARY
  5
17
100
AcDbDictionary
280
0
281
1
  3
Standard
350
18
  0
MLINESTYLE
  5
18
100
AcDbMlineStyle
  2
STANDARD
 70
0
  3

 62
256
 51
90.0
 52
90.0
 71
2
 49
0.5
 62
256
  6
BYLAYER
 49
-0.5
 62
256
  6
BYLAYER
  0
DICTIONARY
  5
19
100
AcDbDictionary
280
0
281
1
  0
DICTIONARY
  5
1A
100
AcDbDictionary
281
1
  3
Layout1
350
1E
  3
Layout2
350
26
  3
Model
350
22
  0
LAYOUT
  5
1E
100
AcDbPlotSettings
  1

  2
none_device
  4

  6

 40
0.0
 41
0.0
 42
0.0
 43
0.0
 44
0.0
 45
0.0
 46
0.0
 47
0.0
 48
0.0
 49
0.0
140
0.0
141
0.0
142
1.0
143
1.0
 70
688
 72
0
 73
0
 74
5
  7

 75
16
147
1.0
148
0.0
149
0.0
100
AcDbLayout
  1
Layout1
 70
1
 71
1
 10
0.0
 20
0.0
 11
420.0
 21
297.0
 12
0.0
 22
0.0
 32
0.0
 14
100000000000000000000.0
 24
100000000000000000000.0
 34
100000000000000000000.0
 15
-100000000000000000000.0
 25
-100000000000000000000.0
 35
-100000000000000000000.0
146
0.0
 13
0.0
 23
0.0
 33
0.0
 16
1.0
 26
0.0
 36
0.0
 17
0.0
 27
1.0
 37
0.0
 76
0
330
1B
  0
LAYOUT
  5
22
100
AcDbPlotSettings
  1

  2
none_device
  4

  6

 40
0.0
 41
0.0
 42
0.0
 43
0.0
 44
0.0
 45
0.0
 46
0.0
 47
0.0
 48
0.0
 49
0.0
140
0.0
141
0.0
142
1.0
143
1.0
 70
1712
 72
0
 73
0
 74
0
  7

 75
0
147
1.0
148
0.0
149
0.0
100
AcDbLayout
  1
Model
 70
1
 71
0
 10
0.0
 20
0.0
 11
12.0
 21
9.0
 12
0.0
 22
0.0
 32
0.0
 14
0.0
 24
0.0
 34
0.0
 15
0.0
 25
0.0
 35
0.0
146
0.0
 13
0.0
 23
0.0
 33
0.0
 16
1.0
 26
0.0
 36
0.0
 17
0.0
 27
1.0
 37
0.0
 76
0
330
1F
  0
LAYOUT
  5
26
100
AcDbPlotSettings
  1

  2
none_device
  4

  6

 40
0.0
 41
0.0
 42
0.0
 43
0.0
 44
0.0
 45
0.0
 46
0.0
 47
0.0
 48
0.0
 49
0.0
140
0.0
141
0.0
142
1.0
143
1.0
 70
688
 72
0
 73
0
 74
5
  7

 75
16
147
1.0
148
0.0
149
0.0
100
AcDbLayout
  1
Layout2
 70
1
 71
2
 10
0.0
 20
0.0
 11
12.0
 21
9.0
 12
0.0
 22
0.0
 32
0.0
 14
0.0
 24
0.0
 34
0.0
 15
0.0
 25
0.0
 35
0.0
146
0.0
 13
0.0
 23
0.0
 33
0.0
 16
1.0
 26
0.0
 36
0.0
 17
0.0
 27
1.0
 37
0.0
 76
0
330
23
  0
DICTIONARY
  5
625
100
AcDbDictionary
281
1
  3
DIMASSOC
350
628
  3
HIDETEXT
350
627
  0
DICTIONARYVAR
  5
627
100
DictionaryVariables
280
0
  1
2
  0
DICTIONARYVAR
  5
628
100
DictionaryVariables
280
0
  1
1
  0
DICTIONARY
  5
626
100
AcDbDictionary
281
1
  3
ColorSettings/BackgroundColor
350
629
  3
ColorSettings/ColorMode
350
62A
  3
Grid/DisplayGrid00
350
62B
  3
Grid/DisplayGrid01
350
62C
  3
Grid/DisplayGrid02
350
62D
  3
Grid/DisplayGrid03
350
62E
  3
Grid/GridSpacingX00
350
62F
  3
Grid/GridSpacingX01
350
630
  3
Grid/GridSpacingX02
350
631
  3
Grid/GridSpacingX03
350
632
  3
Grid/GridSpacingY00
350
633
  3
Grid/GridSpacingY01
350
634
  3
Grid/GridSpacingY02
350
635
  3
Grid/GridSpacingY03
350
636
  3
Grid/IsometricGrid00
350
637
  3
Grid/IsometricGrid01
350
638
  3
Grid/IsometricGrid02
350
639
  3
Grid/IsometricGrid03
350
63A
  3
Grid/IsometricProjection00
350
63B
  3
Grid/IsometricProjection01
350
63C
  3
Grid/IsometricProjection02
350
63D
  3
Grid/IsometricProjection03
350
63E
  3
Grid/MetaGridSpacingX00
350
63F
  3
Grid/MetaGridSpacingX01
350
640
  3
Grid/MetaGridSpacingX02
350
641
  3
Grid/MetaGridSpacingX03
350
642
  3
Grid/MetaGridSpacingY00
350
643
  3
Grid/MetaGridSpacingY01
350
644
  3
Grid/MetaGridSpacingY02
350
645
  3
Grid/MetaGridSpacingY03
350
646
  3
MultiPageSettings/Columns
350
647
  3
MultiPageSettings/GlueMarginsBottom
350
648
  3
MultiPageSettings/GlueMarginsLeft
350
649
  3
MultiPageSettings/GlueMarginsRight
350
64A
  3
MultiPageSettings/GlueMarginsTop
350
64B
  3
MultiPageSettings/PrintCropMarks
350
64C
  3
MultiPageSettings/Rows
350
64D
  3
PageSettings/OffsetX
350
64E
  3
PageSettings/OffsetY
350
64F
  3
PageSettings/PageOrientation
350
650
  3
PageSettings/PaperHeight
350
651
  3
PageSettings/PaperWidth
350
652
  3
PageSettings/Scale
350
653
  3
PageSettings/ShowPaperBorders
350
654
  3
QCADVersion
350
655
  3
UnitSettings/PaperUnit
350
656
  3
ViewportCenter
350
657
  3
ViewportHeight
350
658
  3
ViewportWidth
350
659
  0
XRECORD
  5
629
330
626
100
AcDbXrecord
280
1
1000
Blanc
  0
XRECORD
  5
62A
330
626
100
AcDbXrecord
280
1
1000
FullColor
  0
XRECORD
  5
62B
330
626
100
AcDbXrecord
280
1
290
1
  0
XRECORD
  5
62C
330
626
100
AcDbXrecord
280
1
290
1
  0
XRECORD
  5
62D
330
626
100
AcDbXrecord
280
1
290
1
  0
XRECORD
  5
62E
330
626
100
AcDbXrecord
280
1
290
1
  0
XRECORD
  5
62F
330
626
100
AcDbXrecord
280
1
1000
auto
  0
XRECORD
  5
630
330
626
100
AcDbXrecord
280
1
1000
auto
  0
XRECORD
  5
631
330
626
100
AcDbXrecord
280
1
1000
auto
  0
XRECORD
  5
632
330
626
100
AcDbXrecord
280
1
1000
auto
  0
XRECORD
  5
633
330
626
100
AcDbXrecord
280
1
1000
auto
  0
XRECORD
  5
634
330
626
100
AcDbXrecord
280
1
1000
auto
  0
XRECORD
  5
635
330
626
100
AcDbXrecord
280
1
1000
auto
  0
XRECORD
  5
636
330
626
100
AcDbXrecord
280
1
1000
auto
  0
XRECORD
  5
637
330
626
100
AcDbXrecord
280
1
290
0
  0
XRECORD
  5
638
330
626
100
AcDbXrecord
280
1
290
0
  0
XRECORD
  5
639
330
626
100
AcDbXrecord
280
1
290
0
  0
XRECORD
  5
63A
330
626
100
AcDbXrecord
280
1
290
0
  0
XRECORD
  5
63B
330
626
100
AcDbXrecord
280
1
 90
0
  0
XRECORD
  5
63C
330
626
100
AcDbXrecord
280
1
 90
0
  0
XRECORD
  5
63D
330
626
100
AcDbXrecord
280
1
 90
0
  0
XRECORD
  5
63E
330
626
100
AcDbXrecord
280
1
 90
0
  0
XRECORD
  5
63F
330
626
100
AcDbXrecord
280
1
1000
auto
  0
XRECORD
  5
640
330
626
100
AcDbXrecord
280
1
1000
auto
  0
XRECORD
  5
641
330
626
100
AcDbXrecord
280
1
1000
auto
  0
XRECORD
  5
642
330
626
100
AcDbXrecord
280
1
1000
auto
  0
XRECORD
  5
643
330
626
100
AcDbXrecord
280
1
1000
auto
  0
XRECORD
  5
644
330
626
100
AcDbXrecord
280
1
1000
auto
  0
XRECORD
  5
645
330
626
100
AcDbXrecord
280
1
1000
auto
  0
XRECORD
  5
646
330
626
100
AcDbXrecord
280
1
1000
auto
  0
XRECORD
  5
647
330
626
100
AcDbXrecord
280
1
 90
1
  0
XRECORD
  5
648
330
626
100
AcDbXrecord
280
1
 40
10.0
  0
XRECORD
  5
649
330
626
100
AcDbXrecord
280
1
 40
10.0
  0
XRECORD
  5
64A
330
626
100
AcDbXrecord
280
1
 40
10.0
  0
XRECORD
  5
64B
330
626
100
AcDbXrecord
280
1
 40
10.0
  0
XRECORD
  5
64C
330
626
100
AcDbXrecord
280
1
290
0
  0
XRECORD
  5
64D
330
626
100
AcDbXrecord
280
1
 90
1
  0
XRECORD
  5
64E
330
626
100
AcDbXrecord
280
1
 40
0.0
  0
XRECORD
  5
64F
330
626
100
AcDbXrecord
280
1
 40
0.0
  0
XRECORD
  5
650
330
626
100
AcDbXrecord
280
1
1000
Portrait
  0
XRECORD
  5
651
330
626
100
AcDbXrecord
280
1
 40
297.0
  0
XRECORD
  5
652
330
626
100
AcDbXrecord
280
1
 40
210.0
  0
XRECORD
  5
653
330
626
100
AcDbXrecord
280
1
1000
1:1
  0
XRECORD
  5
654
330
626
100
AcDbXrecord
280
1
290
1
  0
XRECORD
  5
655
330
626
100
AcDbXrecord
280
1
1000
3.16.1
  0
XRECORD
  5
656
330
626
100
AcDbXrecord
280
1
 90
4
  0
XRECORD
  5
658
330
626
100
AcDbXrecord
280
1
 40
198.6986292906226481
  0
XRECORD
  5
659
330
626
100
AcDbXrecord
280
1
 40
586.7984921162906176
  0
ENDSEC
  0
EOF
