999
dxflib 3.12.2.0
  0
SECTION
  2
HEADER
  9
$ACADVER
  1
AC1015
  9
$HANDSEED
  5
FFFF
  9
$DIMADEC
 70
0
  9
$DIMASZ
 40
2.5
  9
$DIMAUNIT
 70
0
  9
$DIMAZIN
 70
2
  9
$DIMDEC
 70
4
  9
$DIMDSEP
 70
46
  9
$DIMEXE
 40
1.25
  9
$DIMEXO
 40
0.625
  9
$DIMGAP
 40
0.625
  9
$DIMLUNIT
 70
2
  9
$DIMSCALE
 40
1.0
  9
$DIMTSZ
 40
0.0
  9
$DIMTXT
 40
2.5
  9
$DIMZIN
 70
8
  9
$DWGCODEPAGE
  3
ANSI_1252
  9
$INSUNITS
 70
4
  9
$LTSCALE
 40
1.0
  9
$MAXACTVP
 70
32
  9
$MEASUREMENT
 70
1
  9
$PDMODE
 70
0
  9
$PDSIZE
 40
0
  0
ENDSEC
  0
SECTION
  2
TABLES
  0
TABLE
  2
VPORT
  5
8
100
AcDbSymbolTable
 70
1
  0
VPORT
  5
30
100
AcDbSymbolTableRecord
100
AcDbViewportTableRecord
  2
*Active
 70
0
 10
0.0
 20
0.0
 11
1.0
 21
1.0
 12
286.3055555555554861
 22
148.5
 13
0.0
 23
0.0
 14
10.0
 24
10.0
 15
10.0
 25
10.0
 16
0.0
 26
0.0
 36
1.0
 17
0.0
 27
0.0
 37
0.0
 40
297.0
 41
1.92798353909465
 42
50.0
 43
0.0
 44
0.0
 50
0.0
 51
0.0
 71
0
 72
100
 73
1
 74
3
 75
1
 76
1
 77
0
 78
0
281
0
 65
1
110
0.0
120
0.0
130
0.0
111
1.0
121
0.0
131
0.0
112
0.0
122
1.0
132
0.0
 79
0
146
0.0
  0
ENDTAB
  0
TABLE
  2
LTYPE
  5
5
100
AcDbSymbolTable
 70
41
  0
LTYPE
  5
16
100
AcDbSymbolTableRecord
100
AcDbLinetypeTableRecord
  2
Continuous
 70
0
  3
Solid line
 72
65
 73
0
 40
0.0
  0
LTYPE
  5
31
100
AcDbSymbolTableRecord
100
AcDbLinetypeTableRecord
  2
ACAD_ISO15W100
 70
0
  3
ISO double-dash triple-dot __ __ . . . __ __ . .
 72
65
 73
10
 40
39.0000000000000071
 49
12.0
 74
0
 49
-3.0
 74
0
 49
12.0
 74
0
 49
-2.9500000000000002
 74
0
 49
0.1
 74
0
 49
-2.9000000000000004
 74
0
 49
0.1
 74
0
 49
-2.9000000000000004
 74
0
 49
0.1
 74
0
 49
-2.9500000000000002
 74
0
  0
LTYPE
  5
32
100
AcDbSymbolTableRecord
100
AcDbLinetypeTableRecord
  2
DIVIDE
 70
0
  3
Divide ____ . . ____ . . ____ . . ____ . . ____
 72
65
 73
6
 40
31.7500000000000036
 49
12.6999999999999993
 74
0
 49
-6.2999999999999998
 74
0
 49
0.1
 74
0
 49
-6.25
 74
0
 49
0.1
 74
0
 49
-6.2999999999999998
 74
0
  0
LTYPE
  5
33
100
AcDbSymbolTableRecord
100
AcDbLinetypeTableRecord
  2
ACAD_ISO10W100
 70
0
  3
ISO dash dot __ . __ . __ . __ . __ . __ . __ . 
 72
65
 73
4
 40
18.0
 49
12.0
 74
0
 49
-2.9500000000000002
 74
0
 49
0.1
 74
0
 49
-2.9500000000000002
 74
0
  0
LTYPE
  5
34
100
AcDbSymbolTableRecord
100
AcDbLinetypeTableRecord
  2
ACAD_ISO04W100
 70
0
  3
ISO long-dash dot ____ . ____ . ____ . ____ . _
 72
65
 73
4
 40
30.0
 49
24.0
 74
0
 49
-2.9500000000000002
 74
0
 49
0.1
 74
0
 49
-2.9500000000000002
 74
0
  0
LTYPE
  5
35
100
AcDbSymbolTableRecord
100
AcDbLinetypeTableRecord
  2
CENTER2
 70
0
  3
Center (.5x) ___ _ ___ _ ___ _ ___ _ ___ _ ___
 72
65
 73
4
 40
28.5750000000000028
 49
19.0500000000000007
 74
0
 49
-3.1749999999999998
 74
0
 49
3.1749999999999998
 74
0
 49
-3.1749999999999998
 74
0
  0
LTYPE
  5
36
100
AcDbSymbolTableRecord
100
AcDbLinetypeTableRecord
  2
ACAD_ISO11W100
 70
0
  3
ISO double-dash dot __ __ . __ __ . __ __ . __ _
 72
65
 73
6
 40
33.0
 49
12.0
 74
0
 49
-3.0
 74
0
 49
12.0
 74
0
 49
-2.9500000000000002
 74
0
 49
0.1
 74
0
 49
-2.9500000000000002
 74
0
  0
LTYPE
  5
37
100
AcDbSymbolTableRecord
100
AcDbLinetypeTableRecord
  2
HIDDEN2
 70
0
  3
Hidden (.5x) _ _ _ _ _ _ _ _ _ _ _ _ _ _ _ _ _ 
 72
65
 73
2
 40
4.7624999999999993
 49
3.1749999999999998
 74
0
 49
-1.5874999999999999
 74
0
  0
LTYPE
  5
38
100
AcDbSymbolTableRecord
100
AcDbLinetypeTableRecord
  2
BORDERX2
 70
0
  3
Border (2x) ____  ____  .  ____  ____  .  ___
 72
65
 73
6
 40
88.8999999999999773
 49
25.3999999999999986
 74
0
 49
-12.6999999999999993
 74
0
 49
25.3999999999999986
 74
0
 49
-12.6499999999999986
 74
0
 49
0.1
 74
0
 49
-12.6499999999999986
 74
0
  0
LTYPE
  5
39
100
AcDbSymbolTableRecord
100
AcDbLinetypeTableRecord
  2
ACAD_ISO05W100
 70
0
  3
ISO long-dash double-dot ____ .. ____ .. ____ . 
 72
65
 73
6
 40
33.0000000000000071
 49
24.0
 74
0
 49
-2.9500000000000002
 74
0
 49
0.1
 74
0
 49
-2.9000000000000004
 74
0
 49
0.1
 74
0
 49
-2.9500000000000002
 74
0
  0
LTYPE
  5
3A
100
AcDbSymbolTableRecord
100
AcDbLinetypeTableRecord
  2
DASHDOTX2
 70
0
  3
Dash dot (2x) ____  .  ____  .  ____  .  ___
 72
65
 73
4
 40
50.7999999999999972
 49
25.3999999999999986
 74
0
 49
-12.6499999999999986
 74
0
 49
0.1
 74
0
 49
-12.6499999999999986
 74
0
  0
LTYPE
  5
3B
100
AcDbSymbolTableRecord
100
AcDbLinetypeTableRecord
  2
HIDDENX2
 70
0
  3
Hidden (2x) ____ ____ ____ ____ ____ ____ ____ 
 72
65
 73
2
 40
19.0499999999999972
 49
12.6999999999999993
 74
0
 49
-6.3499999999999996
 74
0
  0
LTYPE
  5
3C
100
AcDbSymbolTableRecord
100
AcDbLinetypeTableRecord
  2
CENTERX2
 70
0
  3
Center (2x) ________  __  ________  __  _____
 72
65
 73
4
 40
101.6000000000000085
 49
63.5
 74
0
 49
-12.6999999999999993
 74
0
 49
12.6999999999999993
 74
0
 49
-12.6999999999999993
 74
0
  0
LTYPE
  5
3D
100
AcDbSymbolTableRecord
100
AcDbLinetypeTableRecord
  2
BORDER2
 70
0
  3
Border (.5x) __.__.__.__.__.__.__.__.__.__.__.
 72
65
 73
6
 40
22.2250000000000014
 49
6.3499999999999996
 74
0
 49
-3.1749999999999998
 74
0
 49
6.3499999999999996
 74
0
 49
-3.125
 74
0
 49
0.1
 74
0
 49
-3.125
 74
0
  0
LTYPE
  5
3E
100
AcDbSymbolTableRecord
100
AcDbLinetypeTableRecord
  2
DASHDOT2
 70
0
  3
Dash dot (.5x) _._._._._._._._._._._._._._._.
 72
65
 73
4
 40
12.6999999999999993
 49
6.3499999999999996
 74
0
 49
-3.125
 74
0
 49
0.1
 74
0
 49
-3.125
 74
0
  0
LTYPE
  5
3F
100
AcDbSymbolTableRecord
100
AcDbLinetypeTableRecord
  2
ACAD_ISO12W100
 70
0
  3
ISO dash double-dot __ . . __ . . __ . . __ . . 
 72
65
 73
6
 40
21.0
 49
12.0
 74
0
 49
-2.9500000000000002
 74
0
 49
0.1
 74
0
 49
-2.9000000000000004
 74
0
 49
0.1
 74
0
 49
-2.9500000000000002
 74
0
  0
LTYPE
  5
40
100
AcDbSymbolTableRecord
100
AcDbLinetypeTableRecord
  2
ACAD_ISO07W100
 70
0
  3
ISO dot . . . . . . . . . . . . . . . . . . . . 
 72
65
 73
2
 40
3.0
 49
0.1
 74
0
 49
-2.8999999999999999
 74
0
  0
LTYPE
  5
41
100
AcDbSymbolTableRecord
100
AcDbLinetypeTableRecord
  2
HIDDEN
 70
0
  3
Hidden __ __ __ __ __ __ __ __ __ __ __ __ __ __
 72
65
 73
2
 40
9.5249999999999986
 49
6.3499999999999996
 74
0
 49
-3.1749999999999998
 74
0
  0
LTYPE
  5
42
100
AcDbSymbolTableRecord
100
AcDbLinetypeTableRecord
  2
ACAD_ISO06W100
 70
0
  3
ISO long-dash triple-dot ____ ... ____ ... ____
 72
65
 73
8
 40
36.0000000000000071
 49
24.0
 74
0
 49
-2.9500000000000002
 74
0
 49
0.1
 74
0
 49
-2.9000000000000004
 74
0
 49
0.1
 74
0
 49
-2.9000000000000004
 74
0
 49
0.1
 74
0
 49
-2.9500000000000002
 74
0
  0
LTYPE
  5
43
100
AcDbSymbolTableRecord
100
AcDbLinetypeTableRecord
  2
CENTER
 70
0
  3
Center ____ _ ____ _ ____ _ ____ _ ____ _ ____
 72
65
 73
4
 40
50.8000000000000043
 49
31.75
 74
0
 49
-6.3499999999999996
 74
0
 49
6.3499999999999996
 74
0
 49
-6.3499999999999996
 74
0
  0
LTYPE
  5
44
100
AcDbSymbolTableRecord
100
AcDbLinetypeTableRecord
  2
DOTX2
 70
0
  3
Dot (2x) .  .  .  .  .  .  .  .  .  .  .  .  .  .
 72
65
 73
2
 40
12.6999999999999993
 49
0.1
 74
0
 49
-12.5999999999999996
 74
0
  0
LTYPE
  5
45
100
AcDbSymbolTableRecord
100
AcDbLinetypeTableRecord
  2
PHANTOM
 70
0
  3
Phantom ______  __  __  ______  __  __  ______ 
 72
65
 73
6
 40
63.5000000000000071
 49
31.75
 74
0
 49
-6.3499999999999996
 74
0
 49
6.3499999999999996
 74
0
 49
-6.3499999999999996
 74
0
 49
6.3499999999999996
 74
0
 49
-6.3499999999999996
 74
0
  0
LTYPE
  5
46
100
AcDbSymbolTableRecord
100
AcDbLinetypeTableRecord
  2
ACAD_ISO08W100
 70
0
  3
ISO long-dash short-dash ____ __ ____ __ ____ _
 72
65
 73
4
 40
36.0
 49
24.0
 74
0
 49
-3.0
 74
0
 49
6.0
 74
0
 49
-3.0
 74
0
  0
LTYPE
  5
47
100
AcDbSymbolTableRecord
100
AcDbLinetypeTableRecord
  2
DASHEDX2
 70
0
  3
Dashed (2x) ____  ____  ____  ____  ____  ___
 72
65
 73
2
 40
38.0999999999999943
 49
25.3999999999999986
 74
0
 49
-12.6999999999999993
 74
0
  0
LTYPE
  5
48
100
AcDbSymbolTableRecord
100
AcDbLinetypeTableRecord
  2
ACAD_ISO02W100
 70
0
  3
ISO dash __ __ __ __ __ __ __ __ __ __ __ __ __
 72
65
 73
2
 40
15.0
 49
12.0
 74
0
 49
-3.0
 74
0
  0
LTYPE
  5
49
100
AcDbSymbolTableRecord
100
AcDbLinetypeTableRecord
  2
PHANTOM2
 70
0
  3
Phantom (.5x) ___ _ _ ___ _ _ ___ _ _ ___ _ _
 72
65
 73
6
 40
31.7500000000000036
 49
15.875
 74
0
 49
-3.1749999999999998
 74
0
 49
3.1749999999999998
 74
0
 49
-3.1749999999999998
 74
0
 49
3.1749999999999998
 74
0
 49
-3.1749999999999998
 74
0
  0
LTYPE
  5
4A
100
AcDbSymbolTableRecord
100
AcDbLinetypeTableRecord
  2
DASHED2
 70
0
  3
Dashed (.5x) _ _ _ _ _ _ _ _ _ _ _ _ _ _ _ _ _ 
 72
65
 73
2
 40
9.5249999999999986
 49
6.3499999999999996
 74
0
 49
-3.1749999999999998
 74
0
  0
LTYPE
  5
4B
100
AcDbSymbolTableRecord
100
AcDbLinetypeTableRecord
  2
ACAD_ISO09W100
 70
0
  3
ISO long-dash double-short-dash ____ __ __ ____
 72
65
 73
6
 40
45.0
 49
24.0
 74
0
 49
-3.0
 74
0
 49
6.0
 74
0
 49
-3.0
 74
0
 49
6.0
 74
0
 49
-3.0
 74
0
  0
LTYPE
  5
4C
100
AcDbSymbolTableRecord
100
AcDbLinetypeTableRecord
  2
ACAD_ISO13W100
 70
0
  3
ISO double-dash double-dot __ __ . . __ __ . . _
 72
65
 73
8
 40
36.0000000000000071
 49
12.0
 74
0
 49
-3.0
 74
0
 49
12.0
 74
0
 49
-2.9500000000000002
 74
0
 49
0.1
 74
0
 49
-2.9000000000000004
 74
0
 49
0.1
 74
0
 49
-2.9500000000000002
 74
0
  0
LTYPE
  5
4D
100
AcDbSymbolTableRecord
100
AcDbLinetypeTableRecord
  2
DOT2
 70
0
  3
Dot (.5x) ........................................
 72
65
 73
2
 40
3.1749999999999998
 49
0.1
 74
0
 49
-3.0749999999999997
 74
0
  0
LTYPE
  5
4E
100
AcDbSymbolTableRecord
100
AcDbLinetypeTableRecord
  2
DASHED
 70
0
  3
Dashed __ __ __ __ __ __ __ __ __ __ __ __ __ _
 72
65
 73
2
 40
19.0499999999999972
 49
12.6999999999999993
 74
0
 49
-6.3499999999999996
 74
0
  0
LTYPE
  5
4F
100
AcDbSymbolTableRecord
100
AcDbLinetypeTableRecord
  2
ACAD_ISO14W100
 70
0
  3
ISO dash triple-dot __ . . . __ . . . __ . . . _
 72
65
 73
8
 40
24.0000000000000036
 49
12.0
 74
0
 49
-2.9500000000000002
 74
0
 49
0.1
 74
0
 49
-2.9000000000000004
 74
0
 49
0.1
 74
0
 49
-2.9000000000000004
 74
0
 49
0.1
 74
0
 49
-2.9500000000000002
 74
0
  0
LTYPE
  5
15
100
AcDbSymbolTableRecord
100
AcDbLinetypeTableRecord
  2
BYLAYER
 70
0
  3

 72
65
 73
0
 40
0.0
  0
LTYPE
  5
50
100
AcDbSymbolTableRecord
100
AcDbLinetypeTableRecord
  2
PHANTOMX2
 70
0
  3
Phantom (2x) ____________    ____    ____   _
 72
65
 73
6
 40
127.0000000000000142
 49
63.5
 74
0
 49
-12.6999999999999993
 74
0
 49
12.6999999999999993
 74
0
 49
-12.6999999999999993
 74
0
 49
12.6999999999999993
 74
0
 49
-12.6999999999999993
 74
0
  0
LTYPE
  5
14
100
AcDbSymbolTableRecord
100
AcDbLinetypeTableRecord
  2
BYBLOCK
 70
0
  3

 72
65
 73
0
 40
0.0
  0
LTYPE
  5
51
100
AcDbSymbolTableRecord
100
AcDbLinetypeTableRecord
  2
DIVIDEX2
 70
0
  3
Divide (2x) ________  .  .  ________  .  .  _
 72
65
 73
6
 40
63.5
 49
25.3999999999999986
 74
0
 49
-12.6499999999999986
 74
0
 49
0.1
 74
0
 49
-12.5999999999999979
 74
0
 49
0.1
 74
0
 49
-12.6499999999999986
 74
0
  0
LTYPE
  5
52
100
AcDbSymbolTableRecord
100
AcDbLinetypeTableRecord
  2
BORDER
 70
0
  3
Border __ __ . __ __ . __ __ . __ __ . __ __ .
 72
65
 73
6
 40
44.4499999999999957
 49
12.6999999999999993
 74
0
 49
-6.3499999999999996
 74
0
 49
12.6999999999999993
 74
0
 49
-6.2999999999999998
 74
0
 49
0.1
 74
0
 49
-6.2999999999999998
 74
0
  0
LTYPE
  5
53
100
AcDbSymbolTableRecord
100
AcDbLinetypeTableRecord
  2
DIVIDE2
 70
0
  3
Divide (.5x) __..__..__..__..__..__..__..__.._
 72
65
 73
6
 40
15.8749999999999982
 49
6.3499999999999996
 74
0
 49
-3.125
 74
0
 49
0.1
 74
0
 49
-3.0750000000000002
 74
0
 49
0.1
 74
0
 49
-3.125
 74
0
  0
LTYPE
  5
54
100
AcDbSymbolTableRecord
100
AcDbLinetypeTableRecord
  2
DOT
 70
0
  3
Dot . . . . . . . . . . . . . . . . . . . . . . . .
 72
65
 73
2
 40
6.3499999999999996
 49
0.1
 74
0
 49
-6.25
 74
0
  0
LTYPE
  5
55
100
AcDbSymbolTableRecord
100
AcDbLinetypeTableRecord
  2
DASHDOT
 70
0
  3
Dash dot __ . __ . __ . __ . __ . __ . __ . __
 72
65
 73
4
 40
25.4000000000000021
 49
12.6999999999999993
 74
0
 49
-6.2999999999999998
 74
0
 49
0.1
 74
0
 49
-6.2999999999999998
 74
0
  0
LTYPE
  5
56
100
AcDbSymbolTableRecord
100
AcDbLinetypeTableRecord
  2
ACAD_ISO03W100
 70
0
  3
ISO dash space __    __    __    __    __    __
 72
65
 73
2
 40
30.0
 49
12.0
 74
0
 49
-18.0
 74
0
  0
ENDTAB
  0
TABLE
  2
LAYER
  5
2
100
AcDbSymbolTable
 70
1
  0
LAYER
  5
10
100
AcDbSymbolTableRecord
100
AcDbLayerTableRecord
  2
0
 70
0
 62
7
420
16777215
  6
Continuous
370
25
390
F
  0
ENDTAB
  0
TABLE
  2
STYLE
  5
3
100
AcDbSymbolTable
 70
1
  0
STYLE
  5
57
100
AcDbSymbolTableRecord
100
AcDbTextStyleTableRecord
  2
Standard
 70
0
 40
0.0
 41
1.0
 50
0.0
 71
0
 42
2.5
  3

  4

1001
ACAD
1000
txt
1071
0
  0
ENDTAB
  0
TABLE
  2
VIEW
  5
6
100
AcDbSymbolTable
 70
0
  0
ENDTAB
  0
TABLE
  2
UCS
  5
7
100
AcDbSymbolTable
 70
0
  0
ENDTAB
  0
TABLE
  2
APPID
  5
9
100
AcDbSymbolTable
 70
1
  0
APPID
  5
12
100
AcDbSymbolTableRecord
100
AcDbRegAppTableRecord
  2
ACAD
 70
0
  0
APPID
  5
58
100
AcDbSymbolTableRecord
100
AcDbRegAppTableRecord
  2
QCAD
 70
0
  0
ENDTAB
  0
TABLE
  2
DIMSTYLE
  5
A
100
AcDbSymbolTable
 70
1
100
AcDbDimStyleTable
 71
0
  0
DIMSTYLE
105
27
100
AcDbSymbolTableRecord
100
AcDbDimStyleTableRecord
  2
Standard
 41
2.5
 42
0.625
 43
3.75
 44
1.25
 70
0
 73
0
 74
0
 77
1
 78
8
140
2.5
141
2.5
143
0.03937007874016
147
0.625
171
3
172
1
271
2
272
2
274
3
278
44
283
0
284
8
340
57
  0
ENDTAB
  0
TABLE
  2
BLOCK_RECORD
  5
1
100
AcDbSymbolTable
 70
1
  0
BLOCK_RECORD
  5
1F
100
AcDbSymbolTableRecord
100
AcDbBlockTableRecord
  2
*Model_Space
340
22
  0
BLOCK_RECORD
  5
1B
100
AcDbSymbolTableRecord
100
AcDbBlockTableRecord
  2
*Paper_Space
340
1E
  0
BLOCK_RECORD
  5
23
100
AcDbSymbolTableRecord
100
AcDbBlockTableRecord
  2
*Paper_Space0
340
26
  0
ENDTAB
  0
ENDSEC
  0
SECTION
  2
BLOCKS
  0
BLOCK
  5
20
100
AcDbEntity
  8
0
100
AcDbBlockBegin
  2
*Model_Space
 70
0
 10
0.0
 20
0.0
 30
0.0
  3
*Model_Space
  1

  0
ENDBLK
  5
21
100
AcDbEntity
  8
0
100
AcDbBlockEnd
  0
BLOCK
  5
1C
100
AcDbEntity
 67
1
  8
0
100
AcDbBlockBegin
  2
*Paper_Space
 70
0
 10
0.0
 20
0.0
 30
0.0
  3
*Paper_Space
  1

  0
ENDBLK
  5
1D
100
AcDbEntity
 67
1
  8
0
100
AcDbBlockEnd
  0
BLOCK
  5
24
100
AcDbEntity
  8
0
100
AcDbBlockBegin
  2
*Paper_Space0
 70
0
 10
0.0
 20
0.0
 30
0.0
  3
*Paper_Space0
  1

  0
ENDBLK
  5
25
100
AcDbEntity
  8
0
100
AcDbBlockEnd
  0
ENDSEC
  0
SECTION
  2
ENTITIES
  0
LINE
  5
59
100
AcDbEntity
  8
0
 62
256
370
-1
 48
1.0
  6
BYLAYER
100
AcDbLine
 10
285.3762934000000087
 20
92.9269299999999987
 30
0.0
 11
285.3762934000000087
 21
40.7641299999999944
 31
0.0
  0
LINE
  5
5A
100
AcDbEntity
  8
0
 62
256
370
-1
 48
1.0
  6
BYLAYER
100
AcDbLine
 10
285.3762934000000087
 20
40.7641299999999944
 30
0.0
 11
281.8752934000000323
 21
40.7641299999999944
 31
0.0
  0
LINE
  5
5B
100
AcDbEntity
  8
0
 62
256
370
-1
 48
1.0
  6
BYLAYER
100
AcDbLine
 10
281.8752934000000323
 20
35.763229999999993
 30
0.0
 11
285.3762934000000087
 21
35.763229999999993
 31
0.0
  0
LINE
  5
5C
100
AcDbEntity
  8
0
 62
256
370
-1
 48
1.0
  6
BYLAYER
100
AcDbLine
 10
285.3762934000000087
 20
35.763229999999993
 30
0.0
 11
285.3762934000000087
 21
2.0
 31
0.0
  0
LINE
  5
5D
100
AcDbEntity
  8
0
 62
256
370
-1
 48
1.0
  6
BYLAYER
100
AcDbLine
 10
283.377293399999985
 20
0.0018488000000048
 30
0.0
 11
2.0009134000000017
 21
-0.0009071000000063
 31
0.0
  0
LINE
  5
5E
100
AcDbEntity
  8
0
 62
256
370
-1
 48
1.0
  6
BYLAYER
100
AcDbLine
 10
0.0
 20
2.0
 30
0.0
 11
0.0
 21
35.763229999999993
 31
0.0
  0
LINE
  5
5F
100
AcDbEntity
  8
0
 62
256
370
-1
 48
1.0
  6
BYLAYER
100
AcDbLine
 10
0.0
 20
40.7641299999999944
 30
0.0
 11
0.0013780000000168
 21
92.9269299999999987
 31
0.0
  0
LINE
  5
60
100
AcDbEntity
  8
0
 62
256
370
-1
 48
1.0
  6
BYLAYER
100
AcDbLine
 10
2.0009134000000017
 20
94.9279300000000035
 30
0.0
 11
283.377293399999985
 21
94.9265299999999996
 31
0.0
  0
LINE
  5
61
100
AcDbEntity
  8
0
 62
256
370
-1
 48
1.0
  6
BYLAYER
100
AcDbLine
 10
135.6882934000000489
 20
16.3647300000000087
 30
0.0
 11
135.6882934000000489
 21
15.3642300000000205
 31
0.0
  0
LINE
  5
62
100
AcDbEntity
  8
0
 62
256
370
-1
 48
1.0
  6
BYLAYER
100
AcDbLine
 10
135.6882934000000489
 20
15.3642300000000205
 30
0.0
 11
134.8882934000000375
 21
15.3642300000000205
 31
0.0
  0
LINE
  5
63
100
AcDbEntity
  8
0
 62
256
370
-1
 48
1.0
  6
BYLAYER
100
AcDbLine
 10
134.8882934000000375
 20
15.3642300000000205
 30
0.0
 11
134.8882934000000375
 21
12.2636300000000062
 31
0.0
  0
LINE
  5
64
100
AcDbEntity
  8
0
 62
256
370
-1
 48
1.0
  6
BYLAYER
100
AcDbLine
 10
134.8882934000000375
 20
12.2636300000000062
 30
0.0
 11
135.6882934000000489
 21
12.2636300000000062
 31
0.0
  0
LINE
  5
65
100
AcDbEntity
  8
0
 62
256
370
-1
 48
1.0
  6
BYLAYER
100
AcDbLine
 10
135.6882934000000489
 20
12.2636300000000062
 30
0.0
 11
135.6882934000000489
 21
11.6641300000000001
 31
0.0
  0
LINE
  5
66
100
AcDbEntity
  8
0
 62
256
370
-1
 48
1.0
  6
BYLAYER
100
AcDbLine
 10
89.0390933999999845
 20
11.6641300000000001
 30
0.0
 11
89.0390933999999845
 21
14.8943300000000249
 31
0.0
  0
LINE
  5
67
100
AcDbEntity
  8
0
 62
256
370
-1
 48
1.0
  6
BYLAYER
100
AcDbLine
 10
89.0390933999999845
 20
14.8943300000000249
 30
0.0
 11
82.2879933999999764
 21
14.8943300000000249
 31
0.0
  0
LINE
  5
68
100
AcDbEntity
  8
0
 62
256
370
-1
 48
1.0
  6
BYLAYER
100
AcDbLine
 10
82.2879933999999764
 20
14.8943300000000249
 30
0.0
 11
82.2879933999999764
 21
11.6641300000000001
 31
0.0
  0
LINE
  5
69
100
AcDbEntity
  8
0
 62
256
370
-1
 48
1.0
  6
BYLAYER
100
AcDbLine
 10
82.2879933999999764
 20
11.6641300000000001
 30
0.0
 11
81.4642934000000025
 21
11.6641300000000001
 31
0.0
  0
LINE
  5
6A
100
AcDbEntity
  8
0
 62
256
370
-1
 48
1.0
  6
BYLAYER
100
AcDbLine
 10
81.4642934000000025
 20
11.6641300000000001
 30
0.0
 11
81.4642934000000025
 21
8.8654099999999971
 31
0.0
  0
LINE
  5
6B
100
AcDbEntity
  8
0
 62
256
370
-1
 48
1.0
  6
BYLAYER
100
AcDbLine
 10
81.4642934000000025
 20
8.8654099999999971
 30
0.0
 11
82.2879933999999764
 21
8.8654099999999971
 31
0.0
  0
LINE
  5
6C
100
AcDbEntity
  8
0
 62
256
370
-1
 48
1.0
  6
BYLAYER
100
AcDbLine
 10
82.2879933999999764
 20
8.8654099999999971
 30
0.0
 11
82.2879933999999764
 21
2.5953200000000152
 31
0.0
  0
LINE
  5
6D
100
AcDbEntity
  8
0
 62
256
370
-1
 48
1.0
  6
BYLAYER
100
AcDbLine
 10
82.2879933999999764
 20
2.5953200000000152
 30
0.0
 11
84.0134933999999873
 21
2.5953200000000152
 31
0.0
  0
LINE
  5
6E
100
AcDbEntity
  8
0
 62
256
370
-1
 48
1.0
  6
BYLAYER
100
AcDbLine
 10
84.0134933999999873
 20
2.5953200000000152
 30
0.0
 11
84.0134933999999873
 21
1.3950499999999977
 31
0.0
  0
LINE
  5
6F
100
AcDbEntity
  8
0
 62
256
370
-1
 48
1.0
  6
BYLAYER
100
AcDbLine
 10
84.0134933999999873
 20
1.3950499999999977
 30
0.0
 11
87.3140934000000186
 21
1.3950499999999977
 31
0.0
  0
LINE
  5
70
100
AcDbEntity
  8
0
 62
256
370
-1
 48
1.0
  6
BYLAYER
100
AcDbLine
 10
87.3140934000000186
 20
1.3950499999999977
 30
0.0
 11
87.3140934000000186
 21
2.5953200000000152
 31
0.0
  0
LINE
  5
71
100
AcDbEntity
  8
0
 62
256
370
-1
 48
1.0
  6
BYLAYER
100
AcDbLine
 10
87.3140934000000186
 20
2.5953200000000152
 30
0.0
 11
89.0390933999999845
 21
2.5953200000000152
 31
0.0
  0
LINE
  5
72
100
AcDbEntity
  8
0
 62
256
370
-1
 48
1.0
  6
BYLAYER
100
AcDbLine
 10
89.0390933999999845
 20
2.5953200000000152
 30
0.0
 11
89.0390933999999845
 21
7.0643000000000029
 31
0.0
  0
LINE
  5
73
100
AcDbEntity
  8
0
 62
256
370
-1
 48
1.0
  6
BYLAYER
100
AcDbLine
 10
135.6882934000000489
 20
7.0643000000000029
 30
0.0
 11
135.6882934000000489
 21
6.4634900000000073
 31
0.0
  0
LINE
  5
74
100
AcDbEntity
  8
0
 62
256
370
-1
 48
1.0
  6
BYLAYER
100
AcDbLine
 10
135.6882934000000489
 20
6.4634900000000073
 30
0.0
 11
134.8882934000000375
 21
6.4634900000000073
 31
0.0
  0
LINE
  5
75
100
AcDbEntity
  8
0
 62
256
370
-1
 48
1.0
  6
BYLAYER
100
AcDbLine
 10
134.8882934000000375
 20
6.4634900000000073
 30
0.0
 11
134.8882934000000375
 21
3.3642600000000016
 31
0.0
  0
LINE
  5
76
100
AcDbEntity
  8
0
 62
256
370
-1
 48
1.0
  6
BYLAYER
100
AcDbLine
 10
134.8882934000000375
 20
3.3642600000000016
 30
0.0
 11
135.6882934000000489
 21
3.3642600000000016
 31
0.0
  0
LINE
  5
77
100
AcDbEntity
  8
0
 62
256
370
-1
 48
1.0
  6
BYLAYER
100
AcDbLine
 10
135.6882934000000489
 20
3.3642600000000016
 30
0.0
 11
135.6882934000000489
 21
2.3651800000000094
 31
0.0
  0
LINE
  5
78
100
AcDbEntity
  8
0
 62
256
370
-1
 48
1.0
  6
BYLAYER
100
AcDbLine
 10
135.6882934000000489
 20
2.3651800000000094
 30
0.0
 11
149.6882934000000489
 21
2.3651800000000094
 31
0.0
  0
LINE
  5
79
100
AcDbEntity
  8
0
 62
256
370
-1
 48
1.0
  6
BYLAYER
100
AcDbLine
 10
149.6882934000000489
 20
2.3651800000000094
 30
0.0
 11
149.6882934000000489
 21
3.3642600000000016
 31
0.0
  0
LINE
  5
7A
100
AcDbEntity
  8
0
 62
256
370
-1
 48
1.0
  6
BYLAYER
100
AcDbLine
 10
149.6882934000000489
 20
3.3642600000000016
 30
0.0
 11
150.4872934000000271
 21
3.3642600000000016
 31
0.0
  0
LINE
  5
7B
100
AcDbEntity
  8
0
 62
256
370
-1
 48
1.0
  6
BYLAYER
100
AcDbLine
 10
150.4872934000000271
 20
3.3642600000000016
 30
0.0
 11
150.4872934000000271
 21
6.4634900000000073
 31
0.0
  0
LINE
  5
7C
100
AcDbEntity
  8
0
 62
256
370
-1
 48
1.0
  6
BYLAYER
100
AcDbLine
 10
150.4872934000000271
 20
6.4634900000000073
 30
0.0
 11
149.6882934000000489
 21
6.4634900000000073
 31
0.0
  0
LINE
  5
7D
100
AcDbEntity
  8
0
 62
256
370
-1
 48
1.0
  6
BYLAYER
100
AcDbLine
 10
149.6882934000000489
 20
6.4634900000000073
 30
0.0
 11
149.6882934000000489
 21
7.0643000000000029
 31
0.0
  0
LINE
  5
7E
100
AcDbEntity
  8
0
 62
256
370
-1
 48
1.0
  6
BYLAYER
100
AcDbLine
 10
149.6882934000000489
 20
7.0643000000000029
 30
0.0
 11
177.2882934000000148
 21
7.0643000000000029
 31
0.0
  0
LINE
  5
7F
100
AcDbEntity
  8
0
 62
256
370
-1
 48
1.0
  6
BYLAYER
100
AcDbLine
 10
177.2882934000000148
 20
7.0643000000000029
 30
0.0
 11
177.2882934000000148
 21
2.5953200000000152
 31
0.0
  0
LINE
  5
80
100
AcDbEntity
  8
0
 62
256
370
-1
 48
1.0
  6
BYLAYER
100
AcDbLine
 10
177.2882934000000148
 20
2.5953200000000152
 30
0.0
 11
179.0142934000000139
 21
2.5953200000000152
 31
0.0
  0
LINE
  5
81
100
AcDbEntity
  8
0
 62
256
370
-1
 48
1.0
  6
BYLAYER
100
AcDbLine
 10
179.0142934000000139
 20
2.5953200000000152
 30
0.0
 11
179.0142934000000139
 21
1.3950499999999977
 31
0.0
  0
LINE
  5
82
100
AcDbEntity
  8
0
 62
256
370
-1
 48
1.0
  6
BYLAYER
100
AcDbLine
 10
179.0142934000000139
 20
1.3950499999999977
 30
0.0
 11
182.3132934000000489
 21
1.3950499999999977
 31
0.0
  0
LINE
  5
83
100
AcDbEntity
  8
0
 62
256
370
-1
 48
1.0
  6
BYLAYER
100
AcDbLine
 10
182.3132934000000489
 20
1.3950499999999977
 30
0.0
 11
182.3132934000000489
 21
2.5953200000000152
 31
0.0
  0
LINE
  5
84
100
AcDbEntity
  8
0
 62
256
370
-1
 48
1.0
  6
BYLAYER
100
AcDbLine
 10
182.3132934000000489
 20
2.5953200000000152
 30
0.0
 11
184.0382934000000148
 21
2.5953200000000152
 31
0.0
  0
LINE
  5
85
100
AcDbEntity
  8
0
 62
256
370
-1
 48
1.0
  6
BYLAYER
100
AcDbLine
 10
184.0382934000000148
 20
2.5953200000000152
 30
0.0
 11
184.0382934000000148
 21
8.8654099999999971
 31
0.0
  0
LINE
  5
86
100
AcDbEntity
  8
0
 62
256
370
-1
 48
1.0
  6
BYLAYER
100
AcDbLine
 10
184.0382934000000148
 20
8.8654099999999971
 30
0.0
 11
184.8622934000000271
 21
8.8654099999999971
 31
0.0
  0
LINE
  5
87
100
AcDbEntity
  8
0
 62
256
370
-1
 48
1.0
  6
BYLAYER
100
AcDbLine
 10
184.8622934000000271
 20
8.8654099999999971
 30
0.0
 11
184.8622934000000271
 21
11.6641300000000001
 31
0.0
  0
LINE
  5
88
100
AcDbEntity
  8
0
 62
256
370
-1
 48
1.0
  6
BYLAYER
100
AcDbLine
 10
184.8622934000000271
 20
11.6641300000000001
 30
0.0
 11
184.0382934000000148
 21
11.6641300000000001
 31
0.0
  0
LINE
  5
89
100
AcDbEntity
  8
0
 62
256
370
-1
 48
1.0
  6
BYLAYER
100
AcDbLine
 10
184.0382934000000148
 20
11.6641300000000001
 30
0.0
 11
184.0382934000000148
 21
14.8943300000000249
 31
0.0
  0
LINE
  5
8A
100
AcDbEntity
  8
0
 62
256
370
-1
 48
1.0
  6
BYLAYER
100
AcDbLine
 10
184.0382934000000148
 20
14.8943300000000249
 30
0.0
 11
177.2882934000000148
 21
14.8943300000000249
 31
0.0
  0
LINE
  5
8B
100
AcDbEntity
  8
0
 62
256
370
-1
 48
1.0
  6
BYLAYER
100
AcDbLine
 10
177.2882934000000148
 20
14.8943300000000249
 30
0.0
 11
177.2882934000000148
 21
11.6641300000000001
 31
0.0
  0
LINE
  5
8C
100
AcDbEntity
  8
0
 62
256
370
-1
 48
1.0
  6
BYLAYER
100
AcDbLine
 10
177.2882934000000148
 20
11.6641300000000001
 30
0.0
 11
149.6882934000000489
 21
11.6641300000000001
 31
0.0
  0
LINE
  5
8D
100
AcDbEntity
  8
0
 62
256
370
-1
 48
1.0
  6
BYLAYER
100
AcDbLine
 10
149.6882934000000489
 20
11.6641300000000001
 30
0.0
 11
149.6882934000000489
 21
12.2636300000000062
 31
0.0
  0
LINE
  5
8E
100
AcDbEntity
  8
0
 62
256
370
-1
 48
1.0
  6
BYLAYER
100
AcDbLine
 10
149.6882934000000489
 20
12.2636300000000062
 30
0.0
 11
150.4872934000000271
 21
12.2636300000000062
 31
0.0
  0
LINE
  5
8F
100
AcDbEntity
  8
0
 62
256
370
-1
 48
1.0
  6
BYLAYER
100
AcDbLine
 10
150.4872934000000271
 20
12.2636300000000062
 30
0.0
 11
150.4872934000000271
 21
15.3642300000000205
 31
0.0
  0
LINE
  5
90
100
AcDbEntity
  8
0
 62
256
370
-1
 48
1.0
  6
BYLAYER
100
AcDbLine
 10
150.4872934000000271
 20
15.3642300000000205
 30
0.0
 11
149.6882934000000489
 21
15.3642300000000205
 31
0.0
  0
LINE
  5
91
100
AcDbEntity
  8
0
 62
256
370
-1
 48
1.0
  6
BYLAYER
100
AcDbLine
 10
149.6882934000000489
 20
15.3642300000000205
 30
0.0
 11
149.6882934000000489
 21
16.3647300000000087
 31
0.0
  0
LINE
  5
92
100
AcDbEntity
  8
0
 62
256
370
-1
 48
1.0
  6
BYLAYER
100
AcDbLine
 10
149.6882934000000489
 20
16.3647300000000087
 30
0.0
 11
135.6882934000000489
 21
16.3647300000000087
 31
0.0
  0
LINE
  5
93
100
AcDbEntity
  8
0
 62
256
370
-1
 48
1.0
  6
BYLAYER
100
AcDbLine
 10
30.9121934000000067
 20
16.3647300000000087
 30
0.0
 11
30.9121934000000067
 21
15.3642300000000205
 31
0.0
  0
LINE
  5
94
100
AcDbEntity
  8
0
 62
256
370
-1
 48
1.0
  6
BYLAYER
100
AcDbLine
 10
30.9121934000000067
 20
15.3642300000000205
 30
0.0
 11
30.112893400000047
 21
15.3642300000000205
 31
0.0
  0
LINE
  5
95
100
AcDbEntity
  8
0
 62
256
370
-1
 48
1.0
  6
BYLAYER
100
AcDbLine
 10
30.112893400000047
 20
15.3642300000000205
 30
0.0
 11
30.112893400000047
 21
12.2636300000000062
 31
0.0
  0
LINE
  5
96
100
AcDbEntity
  8
0
 62
256
370
-1
 48
1.0
  6
BYLAYER
100
AcDbLine
 10
30.112893400000047
 20
12.2636300000000062
 30
0.0
 11
30.9121934000000067
 21
12.2636300000000062
 31
0.0
  0
LINE
  5
97
100
AcDbEntity
  8
0
 62
256
370
-1
 48
1.0
  6
BYLAYER
100
AcDbLine
 10
30.9121934000000067
 20
12.2636300000000062
 30
0.0
 11
30.9121934000000067
 21
6.4634900000000073
 31
0.0
  0
LINE
  5
98
100
AcDbEntity
  8
0
 62
256
370
-1
 48
1.0
  6
BYLAYER
100
AcDbLine
 10
30.9121934000000067
 20
6.4634900000000073
 30
0.0
 11
30.112893400000047
 21
6.4634900000000073
 31
0.0
  0
LINE
  5
99
100
AcDbEntity
  8
0
 62
256
370
-1
 48
1.0
  6
BYLAYER
100
AcDbLine
 10
30.112893400000047
 20
6.4634900000000073
 30
0.0
 11
30.112893400000047
 21
3.3642600000000016
 31
0.0
  0
LINE
  5
9A
100
AcDbEntity
  8
0
 62
256
370
-1
 48
1.0
  6
BYLAYER
100
AcDbLine
 10
30.112893400000047
 20
3.3642600000000016
 30
0.0
 11
30.9121934000000067
 21
3.3642600000000016
 31
0.0
  0
LINE
  5
9B
100
AcDbEntity
  8
0
 62
256
370
-1
 48
1.0
  6
BYLAYER
100
AcDbLine
 10
30.9121934000000067
 20
3.3642600000000016
 30
0.0
 11
30.9121934000000067
 21
2.3651800000000094
 31
0.0
  0
LINE
  5
9C
100
AcDbEntity
  8
0
 62
256
370
-1
 48
1.0
  6
BYLAYER
100
AcDbLine
 10
30.9121934000000067
 20
2.3651800000000094
 30
0.0
 11
44.9129933999999764
 21
2.3651800000000094
 31
0.0
  0
LINE
  5
9D
100
AcDbEntity
  8
0
 62
256
370
-1
 48
1.0
  6
BYLAYER
100
AcDbLine
 10
44.9129933999999764
 20
2.3651800000000094
 30
0.0
 11
44.9129933999999764
 21
3.3642600000000016
 31
0.0
  0
LINE
  5
9E
100
AcDbEntity
  8
0
 62
256
370
-1
 48
1.0
  6
BYLAYER
100
AcDbLine
 10
44.9129933999999764
 20
3.3642600000000016
 30
0.0
 11
45.7137934000000143
 21
3.3642600000000016
 31
0.0
  0
LINE
  5
9F
100
AcDbEntity
  8
0
 62
256
370
-1
 48
1.0
  6
BYLAYER
100
AcDbLine
 10
45.7137934000000143
 20
3.3642600000000016
 30
0.0
 11
45.7137934000000143
 21
6.4634900000000073
 31
0.0
  0
LINE
  5
A0
100
AcDbEntity
  8
0
 62
256
370
-1
 48
1.0
  6
BYLAYER
100
AcDbLine
 10
45.7137934000000143
 20
6.4634900000000073
 30
0.0
 11
44.9129933999999764
 21
6.4634900000000073
 31
0.0
  0
LINE
  5
A1
100
AcDbEntity
  8
0
 62
256
370
-1
 48
1.0
  6
BYLAYER
100
AcDbLine
 10
44.9129933999999764
 20
6.4634900000000073
 30
0.0
 11
44.9129933999999764
 21
12.2636300000000062
 31
0.0
  0
LINE
  5
A2
100
AcDbEntity
  8
0
 62
256
370
-1
 48
1.0
  6
BYLAYER
100
AcDbLine
 10
44.9129933999999764
 20
12.2636300000000062
 30
0.0
 11
45.7137934000000143
 21
12.2636300000000062
 31
0.0
  0
LINE
  5
A3
100
AcDbEntity
  8
0
 62
256
370
-1
 48
1.0
  6
BYLAYER
100
AcDbLine
 10
45.7137934000000143
 20
12.2636300000000062
 30
0.0
 11
45.7137934000000143
 21
15.3642300000000205
 31
0.0
  0
LINE
  5
A4
100
AcDbEntity
  8
0
 62
256
370
-1
 48
1.0
  6
BYLAYER
100
AcDbLine
 10
45.7137934000000143
 20
15.3642300000000205
 30
0.0
 11
44.9129933999999764
 21
15.3642300000000205
 31
0.0
  0
LINE
  5
A5
100
AcDbEntity
  8
0
 62
256
370
-1
 48
1.0
  6
BYLAYER
100
AcDbLine
 10
44.9129933999999764
 20
15.3642300000000205
 30
0.0
 11
44.9129933999999764
 21
16.3647300000000087
 31
0.0
  0
LINE
  5
A6
100
AcDbEntity
  8
0
 62
256
370
-1
 48
1.0
  6
BYLAYER
100
AcDbLine
 10
44.9129933999999764
 20
16.3647300000000087
 30
0.0
 11
30.9121934000000067
 21
16.3647300000000087
 31
0.0
  0
LINE
  5
A7
100
AcDbEntity
  8
0
 62
256
370
-1
 48
1.0
  6
BYLAYER
100
AcDbLine
 10
54.7247934000000384
 20
16.3647300000000087
 30
0.0
 11
54.7247934000000384
 21
15.3642300000000205
 31
0.0
  0
LINE
  5
A8
100
AcDbEntity
  8
0
 62
256
370
-1
 48
1.0
  6
BYLAYER
100
AcDbLine
 10
54.7247934000000384
 20
15.3642300000000205
 30
0.0
 11
53.9267934000000366
 21
15.3642300000000205
 31
0.0
  0
LINE
  5
A9
100
AcDbEntity
  8
0
 62
256
370
-1
 48
1.0
  6
BYLAYER
100
AcDbLine
 10
53.9267934000000366
 20
15.3642300000000205
 30
0.0
 11
53.9267934000000366
 21
12.2636300000000062
 31
0.0
  0
LINE
  5
AA
100
AcDbEntity
  8
0
 62
256
370
-1
 48
1.0
  6
BYLAYER
100
AcDbLine
 10
53.9267934000000366
 20
12.2636300000000062
 30
0.0
 11
54.7247934000000384
 21
12.2636300000000062
 31
0.0
  0
LINE
  5
AB
100
AcDbEntity
  8
0
 62
256
370
-1
 48
1.0
  6
BYLAYER
100
AcDbLine
 10
54.7247934000000384
 20
12.2636300000000062
 30
0.0
 11
54.7247934000000384
 21
6.4634900000000073
 31
0.0
  0
LINE
  5
AC
100
AcDbEntity
  8
0
 62
256
370
-1
 48
1.0
  6
BYLAYER
100
AcDbLine
 10
54.7247934000000384
 20
6.4634900000000073
 30
0.0
 11
53.9267934000000366
 21
6.4634900000000073
 31
0.0
  0
LINE
  5
AD
100
AcDbEntity
  8
0
 62
256
370
-1
 48
1.0
  6
BYLAYER
100
AcDbLine
 10
53.9267934000000366
 20
6.4634900000000073
 30
0.0
 11
53.9267934000000366
 21
3.3642600000000016
 31
0.0
  0
LINE
  5
AE
100
AcDbEntity
  8
0
 62
256
370
-1
 48
1.0
  6
BYLAYER
100
AcDbLine
 10
53.9267934000000366
 20
3.3642600000000016
 30
0.0
 11
54.7247934000000384
 21
3.3642600000000016
 31
0.0
  0
LINE
  5
AF
100
AcDbEntity
  8
0
 62
256
370
-1
 48
1.0
  6
BYLAYER
100
AcDbLine
 10
54.7247934000000384
 20
3.3642600000000016
 30
0.0
 11
54.7247934000000384
 21
2.3651800000000094
 31
0.0
  0
LINE
  5
B0
100
AcDbEntity
  8
0
 62
256
370
-1
 48
1.0
  6
BYLAYER
100
AcDbLine
 10
54.7247934000000384
 20
2.3651800000000094
 30
0.0
 11
68.7254933999999764
 21
2.3651800000000094
 31
0.0
  0
LINE
  5
B1
100
AcDbEntity
  8
0
 62
256
370
-1
 48
1.0
  6
BYLAYER
100
AcDbLine
 10
68.7254933999999764
 20
2.3651800000000094
 30
0.0
 11
68.7254933999999764
 21
3.3642600000000016
 31
0.0
  0
LINE
  5
B2
100
AcDbEntity
  8
0
 62
256
370
-1
 48
1.0
  6
BYLAYER
100
AcDbLine
 10
68.7254933999999764
 20
3.3642600000000016
 30
0.0
 11
69.5262934000000143
 21
3.3642600000000016
 31
0.0
  0
LINE
  5
B3
100
AcDbEntity
  8
0
 62
256
370
-1
 48
1.0
  6
BYLAYER
100
AcDbLine
 10
69.5262934000000143
 20
3.3642600000000016
 30
0.0
 11
69.5262934000000143
 21
6.4634900000000073
 31
0.0
  0
LINE
  5
B4
100
AcDbEntity
  8
0
 62
256
370
-1
 48
1.0
  6
BYLAYER
100
AcDbLine
 10
69.5262934000000143
 20
6.4634900000000073
 30
0.0
 11
68.7254933999999764
 21
6.4634900000000073
 31
0.0
  0
LINE
  5
B5
100
AcDbEntity
  8
0
 62
256
370
-1
 48
1.0
  6
BYLAYER
100
AcDbLine
 10
68.7254933999999764
 20
6.4634900000000073
 30
0.0
 11
68.7254933999999764
 21
12.2636300000000062
 31
0.0
  0
LINE
  5
B6
100
AcDbEntity
  8
0
 62
256
370
-1
 48
1.0
  6
BYLAYER
100
AcDbLine
 10
68.7254933999999764
 20
12.2636300000000062
 30
0.0
 11
69.5262934000000143
 21
12.2636300000000062
 31
0.0
  0
LINE
  5
B7
100
AcDbEntity
  8
0
 62
256
370
-1
 48
1.0
  6
BYLAYER
100
AcDbLine
 10
69.5262934000000143
 20
12.2636300000000062
 30
0.0
 11
69.5262934000000143
 21
15.3642300000000205
 31
0.0
  0
LINE
  5
B8
100
AcDbEntity
  8
0
 62
256
370
-1
 48
1.0
  6
BYLAYER
100
AcDbLine
 10
14.2433934000000022
 20
35.4146300000000025
 30
0.0
 11
14.2433934000000022
 21
34.4142300000000034
 31
0.0
  0
LINE
  5
B9
100
AcDbEntity
  8
0
 62
256
370
-1
 48
1.0
  6
BYLAYER
100
AcDbLine
 10
69.5262934000000143
 20
15.3642300000000205
 30
0.0
 11
68.7254933999999764
 21
15.3642300000000205
 31
0.0
  0
LINE
  5
BA
100
AcDbEntity
  8
0
 62
256
370
-1
 48
1.0
  6
BYLAYER
100
AcDbLine
 10
14.2433934000000022
 20
34.4142300000000034
 30
0.0
 11
13.4440934000000141
 21
34.4142300000000034
 31
0.0
  0
LINE
  5
BB
100
AcDbEntity
  8
0
 62
256
370
-1
 48
1.0
  6
BYLAYER
100
AcDbLine
 10
68.7254933999999764
 20
15.3642300000000205
 30
0.0
 11
68.7254933999999764
 21
16.3647300000000087
 31
0.0
  0
LINE
  5
BC
100
AcDbEntity
  8
0
 62
256
370
-1
 48
1.0
  6
BYLAYER
100
AcDbLine
 10
13.4440934000000141
 20
34.4142300000000034
 30
0.0
 11
13.4440934000000141
 21
31.3150300000000072
 31
0.0
  0
LINE
  5
BD
100
AcDbEntity
  8
0
 62
256
370
-1
 48
1.0
  6
BYLAYER
100
AcDbLine
 10
68.7254933999999764
 20
16.3647300000000087
 30
0.0
 11
54.7247934000000384
 21
16.3647300000000087
 31
0.0
  0
LINE
  5
BE
100
AcDbEntity
  8
0
 62
256
370
-1
 48
1.0
  6
BYLAYER
100
AcDbLine
 10
12.6696933999999999
 20
33.9443300000000079
 30
0.0
 11
6.0192633999999998
 21
33.9443300000000079
 31
0.0
  0
LINE
  5
BF
100
AcDbEntity
  8
0
 62
256
370
-1
 48
1.0
  6
BYLAYER
100
AcDbLine
 10
197.601293400000003
 20
16.3647300000000087
 30
0.0
 11
197.601293400000003
 21
15.3642300000000205
 31
0.0
  0
LINE
  5
C0
100
AcDbEntity
  8
0
 62
256
370
-1
 48
1.0
  6
BYLAYER
100
AcDbLine
 10
6.0192633999999998
 20
33.9443300000000079
 30
0.0
 11
6.0192633999999998
 21
30.7141299999999973
 31
0.0
  0
LINE
  5
C1
100
AcDbEntity
  8
0
 62
256
370
-1
 48
1.0
  6
BYLAYER
100
AcDbLine
 10
197.601293400000003
 20
15.3642300000000205
 30
0.0
 11
196.8002934000000153
 21
15.3642300000000205
 31
0.0
  0
LINE
  5
C2
100
AcDbEntity
  8
0
 62
256
370
-1
 48
1.0
  6
BYLAYER
100
AcDbLine
 10
6.0192633999999998
 20
30.7141299999999973
 30
0.0
 11
5.1442334000000187
 21
30.7141299999999973
 31
0.0
  0
LINE
  5
C3
100
AcDbEntity
  8
0
 62
256
370
-1
 48
1.0
  6
BYLAYER
100
AcDbLine
 10
196.8002934000000153
 20
15.3642300000000205
 30
0.0
 11
196.8002934000000153
 21
12.2636300000000062
 31
0.0
  0
LINE
  5
C4
100
AcDbEntity
  8
0
 62
256
370
-1
 48
1.0
  6
BYLAYER
100
AcDbLine
 10
5.1442334000000187
 20
30.7141299999999973
 30
0.0
 11
5.1442334000000187
 21
27.9154300000000148
 31
0.0
  0
LINE
  5
C5
100
AcDbEntity
  8
0
 62
256
370
-1
 48
1.0
  6
BYLAYER
100
AcDbLine
 10
196.8002934000000153
 20
12.2636300000000062
 30
0.0
 11
197.601293400000003
 21
12.2636300000000062
 31
0.0
  0
LINE
  5
C6
100
AcDbEntity
  8
0
 62
256
370
-1
 48
1.0
  6
BYLAYER
100
AcDbLine
 10
5.1442334000000187
 20
27.9154300000000148
 30
0.0
 11
6.0192633999999998
 21
27.9154300000000148
 31
0.0
  0
LINE
  5
C7
100
AcDbEntity
  8
0
 62
256
370
-1
 48
1.0
  6
BYLAYER
100
AcDbLine
 10
197.601293400000003
 20
12.2636300000000062
 30
0.0
 11
197.601293400000003
 21
6.4634900000000073
 31
0.0
  0
LINE
  5
C8
100
AcDbEntity
  8
0
 62
256
370
-1
 48
1.0
  6
BYLAYER
100
AcDbLine
 10
6.0192633999999998
 20
27.9154300000000148
 30
0.0
 11
6.0192633999999998
 21
21.6453300000000013
 31
0.0
  0
LINE
  5
C9
100
AcDbEntity
  8
0
 62
256
370
-1
 48
1.0
  6
BYLAYER
100
AcDbLine
 10
197.601293400000003
 20
6.4634900000000073
 30
0.0
 11
196.8002934000000153
 21
6.4634900000000073
 31
0.0
  0
LINE
  5
CA
100
AcDbEntity
  8
0
 62
256
370
-1
 48
1.0
  6
BYLAYER
100
AcDbLine
 10
6.0192633999999998
 20
21.6453300000000013
 30
0.0
 11
7.6949534000000028
 21
21.6453300000000013
 31
0.0
  0
LINE
  5
CB
100
AcDbEntity
  8
0
 62
256
370
-1
 48
1.0
  6
BYLAYER
100
AcDbLine
 10
196.8002934000000153
 20
6.4634900000000073
 30
0.0
 11
196.8002934000000153
 21
3.3642600000000016
 31
0.0
  0
LINE
  5
CC
100
AcDbEntity
  8
0
 62
256
370
-1
 48
1.0
  6
BYLAYER
100
AcDbLine
 10
7.6949534000000028
 20
21.6453300000000013
 30
0.0
 11
7.6949534000000028
 21
20.4450300000000027
 31
0.0
  0
LINE
  5
CD
100
AcDbEntity
  8
0
 62
256
370
-1
 48
1.0
  6
BYLAYER
100
AcDbLine
 10
196.8002934000000153
 20
3.3642600000000016
 30
0.0
 11
197.601293400000003
 21
3.3642600000000016
 31
0.0
  0
LINE
  5
CE
100
AcDbEntity
  8
0
 62
256
370
-1
 48
1.0
  6
BYLAYER
100
AcDbLine
 10
7.6949534000000028
 20
20.4450300000000027
 30
0.0
 11
10.9939934000000221
 21
20.4450300000000027
 31
0.0
  0
LINE
  5
CF
100
AcDbEntity
  8
0
 62
256
370
-1
 48
1.0
  6
BYLAYER
100
AcDbLine
 10
197.601293400000003
 20
3.3642600000000016
 30
0.0
 11
197.601293400000003
 21
2.3651800000000094
 31
0.0
  0
LINE
  5
D0
100
AcDbEntity
  8
0
 62
256
370
-1
 48
1.0
  6
BYLAYER
100
AcDbLine
 10
10.9939934000000221
 20
20.4450300000000027
 30
0.0
 11
10.9939934000000221
 21
21.6453300000000013
 31
0.0
  0
LINE
  5
D1
100
AcDbEntity
  8
0
 62
256
370
-1
 48
1.0
  6
BYLAYER
100
AcDbLine
 10
197.601293400000003
 20
2.3651800000000094
 30
0.0
 11
211.6002933999999982
 21
2.3651800000000094
 31
0.0
  0
LINE
  5
D2
100
AcDbEntity
  8
0
 62
256
370
-1
 48
1.0
  6
BYLAYER
100
AcDbLine
 10
10.9939934000000221
 20
21.6453300000000013
 30
0.0
 11
12.6696933999999999
 21
21.6453300000000013
 31
0.0
  0
LINE
  5
D3
100
AcDbEntity
  8
0
 62
256
370
-1
 48
1.0
  6
BYLAYER
100
AcDbLine
 10
211.6002933999999982
 20
2.3651800000000094
 30
0.0
 11
211.6002933999999982
 21
3.3642600000000016
 31
0.0
  0
LINE
  5
D4
100
AcDbEntity
  8
0
 62
256
370
-1
 48
1.0
  6
BYLAYER
100
AcDbLine
 10
13.4440934000000141
 20
25.5135300000000029
 30
0.0
 11
13.4440934000000141
 21
22.4142300000000034
 31
0.0
  0
LINE
  5
D5
100
AcDbEntity
  8
0
 62
256
370
-1
 48
1.0
  6
BYLAYER
100
AcDbLine
 10
211.6002933999999982
 20
3.3642600000000016
 30
0.0
 11
212.4012934000000143
 21
3.3642600000000016
 31
0.0
  0
LINE
  5
D6
100
AcDbEntity
  8
0
 62
256
370
-1
 48
1.0
  6
BYLAYER
100
AcDbLine
 10
13.4440934000000141
 20
22.4142300000000034
 30
0.0
 11
14.2433934000000022
 21
22.4142300000000034
 31
0.0
  0
LINE
  5
D7
100
AcDbEntity
  8
0
 62
256
370
-1
 48
1.0
  6
BYLAYER
100
AcDbLine
 10
212.4012934000000143
 20
3.3642600000000016
 30
0.0
 11
212.4012934000000143
 21
6.4634900000000073
 31
0.0
  0
LINE
  5
D8
100
AcDbEntity
  8
0
 62
256
370
-1
 48
1.0
  6
BYLAYER
100
AcDbLine
 10
14.2433934000000022
 20
22.4142300000000034
 30
0.0
 11
14.2433934000000022
 21
21.4152300000000082
 31
0.0
  0
LINE
  5
D9
100
AcDbEntity
  8
0
 62
256
370
-1
 48
1.0
  6
BYLAYER
100
AcDbLine
 10
212.4012934000000143
 20
6.4634900000000073
 30
0.0
 11
211.6002933999999982
 21
6.4634900000000073
 31
0.0
  0
LINE
  5
DA
100
AcDbEntity
  8
0
 62
256
370
-1
 48
1.0
  6
BYLAYER
100
AcDbLine
 10
14.2433934000000022
 20
21.4152300000000082
 30
0.0
 11
28.242893400000014
 21
21.4152300000000082
 31
0.0
  0
LINE
  5
DB
100
AcDbEntity
  8
0
 62
256
370
-1
 48
1.0
  6
BYLAYER
100
AcDbLine
 10
211.6002933999999982
 20
6.4634900000000073
 30
0.0
 11
211.6002933999999982
 21
12.2636300000000062
 31
0.0
  0
LINE
  5
DC
100
AcDbEntity
  8
0
 62
256
370
-1
 48
1.0
  6
BYLAYER
100
AcDbLine
 10
28.242893400000014
 20
21.4152300000000082
 30
0.0
 11
28.242893400000014
 21
22.4142300000000034
 31
0.0
  0
LINE
  5
DD
100
AcDbEntity
  8
0
 62
256
370
-1
 48
1.0
  6
BYLAYER
100
AcDbLine
 10
211.6002933999999982
 20
12.2636300000000062
 30
0.0
 11
212.4012934000000143
 21
12.2636300000000062
 31
0.0
  0
LINE
  5
DE
100
AcDbEntity
  8
0
 62
256
370
-1
 48
1.0
  6
BYLAYER
100
AcDbLine
 10
28.242893400000014
 20
22.4142300000000034
 30
0.0
 11
29.043593400000006
 21
22.4142300000000034
 31
0.0
  0
LINE
  5
DF
100
AcDbEntity
  8
0
 62
256
370
-1
 48
1.0
  6
BYLAYER
100
AcDbLine
 10
212.4012934000000143
 20
12.2636300000000062
 30
0.0
 11
212.4012934000000143
 21
15.3642300000000205
 31
0.0
  0
LINE
  5
E0
100
AcDbEntity
  8
0
 62
256
370
-1
 48
1.0
  6
BYLAYER
100
AcDbLine
 10
29.043593400000006
 20
22.4142300000000034
 30
0.0
 11
29.043593400000006
 21
25.5135300000000029
 31
0.0
  0
LINE
  5
E1
100
AcDbEntity
  8
0
 62
256
370
-1
 48
1.0
  6
BYLAYER
100
AcDbLine
 10
212.4012934000000143
 20
15.3642300000000205
 30
0.0
 11
211.6002933999999982
 21
15.3642300000000205
 31
0.0
  0
LINE
  5
E2
100
AcDbEntity
  8
0
 62
256
370
-1
 48
1.0
  6
BYLAYER
100
AcDbLine
 10
29.8193934000000098
 20
21.6453300000000013
 30
0.0
 11
31.4936934000000122
 21
21.6453300000000013
 31
0.0
  0
LINE
  5
E3
100
AcDbEntity
  8
0
 62
256
370
-1
 48
1.0
  6
BYLAYER
100
AcDbLine
 10
211.6002933999999982
 20
15.3642300000000205
 30
0.0
 11
211.6002933999999982
 21
16.3647300000000087
 31
0.0
  0
LINE
  5
E4
100
AcDbEntity
  8
0
 62
256
370
-1
 48
1.0
  6
BYLAYER
100
AcDbLine
 10
31.4936934000000122
 20
21.6453300000000013
 30
0.0
 11
31.4936934000000122
 21
20.4450300000000027
 31
0.0
  0
LINE
  5
E5
100
AcDbEntity
  8
0
 62
256
370
-1
 48
1.0
  6
BYLAYER
100
AcDbLine
 10
211.6002933999999982
 20
16.3647300000000087
 30
0.0
 11
197.601293400000003
 21
16.3647300000000087
 31
0.0
  0
LINE
  5
E6
100
AcDbEntity
  8
0
 62
256
370
-1
 48
1.0
  6
BYLAYER
100
AcDbLine
 10
31.4936934000000122
 20
20.4450300000000027
 30
0.0
 11
34.7940934000000084
 21
20.4450300000000027
 31
0.0
  0
LINE
  5
E7
100
AcDbEntity
  8
0
 62
256
370
-1
 48
1.0
  6
BYLAYER
100
AcDbLine
 10
221.4132934000000148
 20
16.3647300000000087
 30
0.0
 11
221.4132934000000148
 21
15.3642300000000205
 31
0.0
  0
LINE
  5
E8
100
AcDbEntity
  8
0
 62
256
370
-1
 48
1.0
  6
BYLAYER
100
AcDbLine
 10
34.7940934000000084
 20
20.4450300000000027
 30
0.0
 11
34.7940934000000084
 21
21.6453300000000013
 31
0.0
  0
LINE
  5
E9
100
AcDbEntity
  8
0
 62
256
370
-1
 48
1.0
  6
BYLAYER
100
AcDbLine
 10
221.4132934000000148
 20
15.3642300000000205
 30
0.0
 11
220.6132934000000034
 21
15.3642300000000205
 31
0.0
  0
LINE
  5
EA
100
AcDbEntity
  8
0
 62
256
370
-1
 48
1.0
  6
BYLAYER
100
AcDbLine
 10
34.7940934000000084
 20
21.6453300000000013
 30
0.0
 11
36.469993400000007
 21
21.6453300000000013
 31
0.0
  0
LINE
  5
EB
100
AcDbEntity
  8
0
 62
256
370
-1
 48
1.0
  6
BYLAYER
100
AcDbLine
 10
220.6132934000000034
 20
15.3642300000000205
 30
0.0
 11
220.6132934000000034
 21
12.2636300000000062
 31
0.0
  0
LINE
  5
EC
100
AcDbEntity
  8
0
 62
256
370
-1
 48
1.0
  6
BYLAYER
100
AcDbLine
 10
36.469993400000007
 20
21.6453300000000013
 30
0.0
 11
36.469993400000007
 21
27.9154300000000148
 31
0.0
  0
LINE
  5
ED
100
AcDbEntity
  8
0
 62
256
370
-1
 48
1.0
  6
BYLAYER
100
AcDbLine
 10
220.6132934000000034
 20
12.2636300000000062
 30
0.0
 11
221.4132934000000148
 21
12.2636300000000062
 31
0.0
  0
LINE
  5
EE
100
AcDbEntity
  8
0
 62
256
370
-1
 48
1.0
  6
BYLAYER
100
AcDbLine
 10
36.469993400000007
 20
27.9154300000000148
 30
0.0
 11
37.3447934000000146
 21
27.9154300000000148
 31
0.0
  0
LINE
  5
EF
100
AcDbEntity
  8
0
 62
256
370
-1
 48
1.0
  6
BYLAYER
100
AcDbLine
 10
221.4132934000000148
 20
12.2636300000000062
 30
0.0
 11
221.4132934000000148
 21
6.4634900000000073
 31
0.0
  0
LINE
  5
F0
100
AcDbEntity
  8
0
 62
256
370
-1
 48
1.0
  6
BYLAYER
100
AcDbLine
 10
37.3447934000000146
 20
27.9154300000000148
 30
0.0
 11
37.3447934000000146
 21
30.7141299999999973
 31
0.0
  0
LINE
  5
F1
100
AcDbEntity
  8
0
 62
256
370
-1
 48
1.0
  6
BYLAYER
100
AcDbLine
 10
221.4132934000000148
 20
6.4634900000000073
 30
0.0
 11
220.6132934000000034
 21
6.4634900000000073
 31
0.0
  0
LINE
  5
F2
100
AcDbEntity
  8
0
 62
256
370
-1
 48
1.0
  6
BYLAYER
100
AcDbLine
 10
37.3447934000000146
 20
30.7141299999999973
 30
0.0
 11
36.469993400000007
 21
30.7141299999999973
 31
0.0
  0
LINE
  5
F3
100
AcDbEntity
  8
0
 62
256
370
-1
 48
1.0
  6
BYLAYER
100
AcDbLine
 10
220.6132934000000034
 20
6.4634900000000073
 30
0.0
 11
220.6132934000000034
 21
3.3642600000000016
 31
0.0
  0
LINE
  5
F4
100
AcDbEntity
  8
0
 62
256
370
-1
 48
1.0
  6
BYLAYER
100
AcDbLine
 10
36.469993400000007
 20
30.7141299999999973
 30
0.0
 11
36.469993400000007
 21
33.9443300000000079
 31
0.0
  0
LINE
  5
F5
100
AcDbEntity
  8
0
 62
256
370
-1
 48
1.0
  6
BYLAYER
100
AcDbLine
 10
220.6132934000000034
 20
3.3642600000000016
 30
0.0
 11
221.4132934000000148
 21
3.3642600000000016
 31
0.0
  0
LINE
  5
F6
100
AcDbEntity
  8
0
 62
256
370
-1
 48
1.0
  6
BYLAYER
100
AcDbLine
 10
36.469993400000007
 20
33.9443300000000079
 30
0.0
 11
29.8193934000000098
 21
33.9443300000000079
 31
0.0
  0
LINE
  5
F7
100
AcDbEntity
  8
0
 62
256
370
-1
 48
1.0
  6
BYLAYER
100
AcDbLine
 10
221.4132934000000148
 20
3.3642600000000016
 30
0.0
 11
221.4132934000000148
 21
2.3651800000000094
 31
0.0
  0
LINE
  5
F8
100
AcDbEntity
  8
0
 62
256
370
-1
 48
1.0
  6
BYLAYER
100
AcDbLine
 10
29.043593400000006
 20
31.3150300000000072
 30
0.0
 11
29.043593400000006
 21
34.4142300000000034
 31
0.0
  0
LINE
  5
F9
100
AcDbEntity
  8
0
 62
256
370
-1
 48
1.0
  6
BYLAYER
100
AcDbLine
 10
221.4132934000000148
 20
2.3651800000000094
 30
0.0
 11
235.4132934000000148
 21
2.3651800000000094
 31
0.0
  0
LINE
  5
FA
100
AcDbEntity
  8
0
 62
256
370
-1
 48
1.0
  6
BYLAYER
100
AcDbLine
 10
29.043593400000006
 20
34.4142300000000034
 30
0.0
 11
28.242893400000014
 21
34.4142300000000034
 31
0.0
  0
LINE
  5
FB
100
AcDbEntity
  8
0
 62
256
370
-1
 48
1.0
  6
BYLAYER
100
AcDbLine
 10
235.4132934000000148
 20
2.3651800000000094
 30
0.0
 11
235.4132934000000148
 21
3.3642600000000016
 31
0.0
  0
LINE
  5
FC
100
AcDbEntity
  8
0
 62
256
370
-1
 48
1.0
  6
BYLAYER
100
AcDbLine
 10
28.242893400000014
 20
34.4142300000000034
 30
0.0
 11
28.242893400000014
 21
35.4146300000000025
 31
0.0
  0
LINE
  5
FD
100
AcDbEntity
  8
0
 62
256
370
-1
 48
1.0
  6
BYLAYER
100
AcDbLine
 10
235.4132934000000148
 20
3.3642600000000016
 30
0.0
 11
236.2122934000000214
 21
3.3642600000000016
 31
0.0
  0
LINE
  5
FE
100
AcDbEntity
  8
0
 62
256
370
-1
 48
1.0
  6
BYLAYER
100
AcDbLine
 10
28.242893400000014
 20
35.4146300000000025
 30
0.0
 11
14.2433934000000022
 21
35.4146300000000025
 31
0.0
  0
LINE
  5
FF
100
AcDbEntity
  8
0
 62
256
370
-1
 48
1.0
  6
BYLAYER
100
AcDbLine
 10
236.2122934000000214
 20
3.3642600000000016
 30
0.0
 11
236.2122934000000214
 21
6.4634900000000073
 31
0.0
  0
LINE
  5
100
100
AcDbEntity
  8
0
 62
256
370
-1
 48
1.0
  6
BYLAYER
100
AcDbLine
 10
45.2011934000000082
 20
35.4146300000000025
 30
0.0
 11
45.2011934000000082
 21
34.4142300000000034
 31
0.0
  0
LINE
  5
101
100
AcDbEntity
  8
0
 62
256
370
-1
 48
1.0
  6
BYLAYER
100
AcDbLine
 10
236.2122934000000214
 20
6.4634900000000073
 30
0.0
 11
235.4132934000000148
 21
6.4634900000000073
 31
0.0
  0
LINE
  5
102
100
AcDbEntity
  8
0
 62
256
370
-1
 48
1.0
  6
BYLAYER
100
AcDbLine
 10
45.2011934000000082
 20
34.4142300000000034
 30
0.0
 11
44.4003934000000129
 21
34.4142300000000034
 31
0.0
  0
LINE
  5
103
100
AcDbEntity
  8
0
 62
256
370
-1
 48
1.0
  6
BYLAYER
100
AcDbLine
 10
235.4132934000000148
 20
6.4634900000000073
 30
0.0
 11
235.4132934000000148
 21
12.2636300000000062
 31
0.0
  0
LINE
  5
104
100
AcDbEntity
  8
0
 62
256
370
-1
 48
1.0
  6
BYLAYER
100
AcDbLine
 10
44.4003934000000129
 20
34.4142300000000034
 30
0.0
 11
44.4003934000000129
 21
31.3150300000000072
 31
0.0
  0
LINE
  5
105
100
AcDbEntity
  8
0
 62
256
370
-1
 48
1.0
  6
BYLAYER
100
AcDbLine
 10
235.4132934000000148
 20
12.2636300000000062
 30
0.0
 11
236.2122934000000214
 21
12.2636300000000062
 31
0.0
  0
LINE
  5
106
100
AcDbEntity
  8
0
 62
256
370
-1
 48
1.0
  6
BYLAYER
100
AcDbLine
 10
44.4003934000000129
 20
31.3150300000000072
 30
0.0
 11
45.2011934000000082
 21
31.3150300000000072
 31
0.0
  0
LINE
  5
107
100
AcDbEntity
  8
0
 62
256
370
-1
 48
1.0
  6
BYLAYER
100
AcDbLine
 10
236.2122934000000214
 20
12.2636300000000062
 30
0.0
 11
236.2122934000000214
 21
15.3642300000000205
 31
0.0
  0
LINE
  5
108
100
AcDbEntity
  8
0
 62
256
370
-1
 48
1.0
  6
BYLAYER
100
AcDbLine
 10
45.2011934000000082
 20
31.3150300000000072
 30
0.0
 11
45.2011934000000082
 21
25.5135300000000029
 31
0.0
  0
LINE
  5
109
100
AcDbEntity
  8
0
 62
256
370
-1
 48
1.0
  6
BYLAYER
100
AcDbLine
 10
236.2122934000000214
 20
15.3642300000000205
 30
0.0
 11
235.4132934000000148
 21
15.3642300000000205
 31
0.0
  0
LINE
  5
10A
100
AcDbEntity
  8
0
 62
256
370
-1
 48
1.0
  6
BYLAYER
100
AcDbLine
 10
45.2011934000000082
 20
25.5135300000000029
 30
0.0
 11
44.4003934000000129
 21
25.5135300000000029
 31
0.0
  0
LINE
  5
10B
100
AcDbEntity
  8
0
 62
256
370
-1
 48
1.0
  6
BYLAYER
100
AcDbLine
 10
235.4132934000000148
 20
15.3642300000000205
 30
0.0
 11
235.4132934000000148
 21
16.3647300000000087
 31
0.0
  0
LINE
  5
10C
100
AcDbEntity
  8
0
 62
256
370
-1
 48
1.0
  6
BYLAYER
100
AcDbLine
 10
44.4003934000000129
 20
25.5135300000000029
 30
0.0
 11
44.4003934000000129
 21
22.4142300000000034
 31
0.0
  0
LINE
  5
10D
100
AcDbEntity
  8
0
 62
256
370
-1
 48
1.0
  6
BYLAYER
100
AcDbLine
 10
235.4132934000000148
 20
16.3647300000000087
 30
0.0
 11
221.4132934000000148
 21
16.3647300000000087
 31
0.0
  0
LINE
  5
10E
100
AcDbEntity
  8
0
 62
256
370
-1
 48
1.0
  6
BYLAYER
100
AcDbLine
 10
44.4003934000000129
 20
22.4142300000000034
 30
0.0
 11
45.2011934000000082
 21
22.4142300000000034
 31
0.0
  0
LINE
  5
10F
100
AcDbEntity
  8
0
 62
256
370
-1
 48
1.0
  6
BYLAYER
100
AcDbLine
 10
45.2011934000000082
 20
22.4142300000000034
 30
0.0
 11
45.2011934000000082
 21
21.4152300000000082
 31
0.0
  0
LINE
  5
110
100
AcDbEntity
  8
0
 62
256
370
-1
 48
1.0
  6
BYLAYER
100
AcDbLine
 10
45.2011934000000082
 20
21.4152300000000082
 30
0.0
 11
59.2018934000000172
 21
21.4152300000000082
 31
0.0
  0
LINE
  5
111
100
AcDbEntity
  8
0
 62
256
370
-1
 48
1.0
  6
BYLAYER
100
AcDbLine
 10
59.2018934000000172
 20
21.4152300000000082
 30
0.0
 11
59.2018934000000172
 21
22.4142300000000034
 31
0.0
  0
LINE
  5
112
100
AcDbEntity
  8
0
 62
256
370
-1
 48
1.0
  6
BYLAYER
100
AcDbLine
 10
59.2018934000000172
 20
22.4142300000000034
 30
0.0
 11
60.0012934000000087
 21
22.4142300000000034
 31
0.0
  0
LINE
  5
113
100
AcDbEntity
  8
0
 62
256
370
-1
 48
1.0
  6
BYLAYER
100
AcDbLine
 10
60.0012934000000087
 20
22.4142300000000034
 30
0.0
 11
60.0012934000000087
 21
25.5135300000000029
 31
0.0
  0
LINE
  5
114
100
AcDbEntity
  8
0
 62
256
370
-1
 48
1.0
  6
BYLAYER
100
AcDbLine
 10
60.0012934000000087
 20
25.5135300000000029
 30
0.0
 11
59.2018934000000172
 21
25.5135300000000029
 31
0.0
  0
LINE
  5
115
100
AcDbEntity
  8
0
 62
256
370
-1
 48
1.0
  6
BYLAYER
100
AcDbLine
 10
59.2018934000000172
 20
25.5135300000000029
 30
0.0
 11
59.2018934000000172
 21
31.3150300000000072
 31
0.0
  0
LINE
  5
116
100
AcDbEntity
  8
0
 62
256
370
-1
 48
1.0
  6
BYLAYER
100
AcDbLine
 10
59.2018934000000172
 20
31.3150300000000072
 30
0.0
 11
60.0012934000000087
 21
31.3150300000000072
 31
0.0
  0
LINE
  5
117
100
AcDbEntity
  8
0
 62
256
370
-1
 48
1.0
  6
BYLAYER
100
AcDbLine
 10
60.0012934000000087
 20
31.3150300000000072
 30
0.0
 11
60.0012934000000087
 21
34.4142300000000034
 31
0.0
  0
LINE
  5
118
100
AcDbEntity
  8
0
 62
256
370
-1
 48
1.0
  6
BYLAYER
100
AcDbLine
 10
60.0012934000000087
 20
34.4142300000000034
 30
0.0
 11
59.2018934000000172
 21
34.4142300000000034
 31
0.0
  0
LINE
  5
119
100
AcDbEntity
  8
0
 62
256
370
-1
 48
1.0
  6
BYLAYER
100
AcDbLine
 10
59.2018934000000172
 20
34.4142300000000034
 30
0.0
 11
59.2018934000000172
 21
35.4146300000000025
 31
0.0
  0
LINE
  5
11A
100
AcDbEntity
  8
0
 62
256
370
-1
 48
1.0
  6
BYLAYER
100
AcDbLine
 10
59.2018934000000172
 20
35.4146300000000025
 30
0.0
 11
45.2011934000000082
 21
35.4146300000000025
 31
0.0
  0
LINE
  5
11B
100
AcDbEntity
  8
0
 62
256
370
-1
 48
1.0
  6
BYLAYER
100
AcDbLine
 10
64.2511934000000053
 20
35.4146300000000025
 30
0.0
 11
64.2511934000000053
 21
34.4142300000000034
 31
0.0
  0
LINE
  5
11C
100
AcDbEntity
  8
0
 62
256
370
-1
 48
1.0
  6
BYLAYER
100
AcDbLine
 10
64.2511934000000053
 20
34.4142300000000034
 30
0.0
 11
63.4517934000000139
 21
34.4142300000000034
 31
0.0
  0
LINE
  5
11D
100
AcDbEntity
  8
0
 62
256
370
-1
 48
1.0
  6
BYLAYER
100
AcDbLine
 10
63.4517934000000139
 20
34.4142300000000034
 30
0.0
 11
63.4517934000000139
 21
31.3150300000000072
 31
0.0
  0
LINE
  5
11E
100
AcDbEntity
  8
0
 62
256
370
-1
 48
1.0
  6
BYLAYER
100
AcDbLine
 10
63.4517934000000139
 20
31.3150300000000072
 30
0.0
 11
64.2511934000000053
 21
31.3150300000000072
 31
0.0
  0
LINE
  5
11F
100
AcDbEntity
  8
0
 62
256
370
-1
 48
1.0
  6
BYLAYER
100
AcDbLine
 10
64.2511934000000053
 20
31.3150300000000072
 30
0.0
 11
64.2511934000000053
 21
25.5135300000000029
 31
0.0
  0
LINE
  5
120
100
AcDbEntity
  8
0
 62
256
370
-1
 48
1.0
  6
BYLAYER
100
AcDbLine
 10
64.2511934000000053
 20
25.5135300000000029
 30
0.0
 11
63.4517934000000139
 21
25.5135300000000029
 31
0.0
  0
LINE
  5
121
100
AcDbEntity
  8
0
 62
256
370
-1
 48
1.0
  6
BYLAYER
100
AcDbLine
 10
63.4517934000000139
 20
25.5135300000000029
 30
0.0
 11
63.4517934000000139
 21
22.4142300000000034
 31
0.0
  0
LINE
  5
122
100
AcDbEntity
  8
0
 62
256
370
-1
 48
1.0
  6
BYLAYER
100
AcDbLine
 10
63.4517934000000139
 20
22.4142300000000034
 30
0.0
 11
64.2511934000000053
 21
22.4142300000000034
 31
0.0
  0
LINE
  5
123
100
AcDbEntity
  8
0
 62
256
370
-1
 48
1.0
  6
BYLAYER
100
AcDbLine
 10
64.2511934000000053
 20
22.4142300000000034
 30
0.0
 11
64.2511934000000053
 21
21.4152300000000082
 31
0.0
  0
LINE
  5
124
100
AcDbEntity
  8
0
 62
256
370
-1
 48
1.0
  6
BYLAYER
100
AcDbLine
 10
64.2511934000000053
 20
21.4152300000000082
 30
0.0
 11
78.2518934000000144
 21
21.4152300000000082
 31
0.0
  0
LINE
  5
125
100
AcDbEntity
  8
0
 62
256
370
-1
 48
1.0
  6
BYLAYER
100
AcDbLine
 10
78.2518934000000144
 20
21.4152300000000082
 30
0.0
 11
78.2518934000000144
 21
22.4142300000000034
 31
0.0
  0
LINE
  5
126
100
AcDbEntity
  8
0
 62
256
370
-1
 48
1.0
  6
BYLAYER
100
AcDbLine
 10
78.2518934000000144
 20
22.4142300000000034
 30
0.0
 11
79.0512934000000058
 21
22.4142300000000034
 31
0.0
  0
LINE
  5
127
100
AcDbEntity
  8
0
 62
256
370
-1
 48
1.0
  6
BYLAYER
100
AcDbLine
 10
79.0512934000000058
 20
22.4142300000000034
 30
0.0
 11
79.0512934000000058
 21
25.5135300000000029
 31
0.0
  0
LINE
  5
128
100
AcDbEntity
  8
0
 62
256
370
-1
 48
1.0
  6
BYLAYER
100
AcDbLine
 10
79.0512934000000058
 20
25.5135300000000029
 30
0.0
 11
78.2518934000000144
 21
25.5135300000000029
 31
0.0
  0
LINE
  5
129
100
AcDbEntity
  8
0
 62
256
370
-1
 48
1.0
  6
BYLAYER
100
AcDbLine
 10
78.2518934000000144
 20
25.5135300000000029
 30
0.0
 11
78.2518934000000144
 21
31.3150300000000072
 31
0.0
  0
LINE
  5
12A
100
AcDbEntity
  8
0
 62
256
370
-1
 48
1.0
  6
BYLAYER
100
AcDbLine
 10
78.2518934000000144
 20
31.3150300000000072
 30
0.0
 11
79.0512934000000058
 21
31.3150300000000072
 31
0.0
  0
LINE
  5
12B
100
AcDbEntity
  8
0
 62
256
370
-1
 48
1.0
  6
BYLAYER
100
AcDbLine
 10
79.0512934000000058
 20
31.3150300000000072
 30
0.0
 11
79.0512934000000058
 21
34.4142300000000034
 31
0.0
  0
LINE
  5
12C
100
AcDbEntity
  8
0
 62
256
370
-1
 48
1.0
  6
BYLAYER
100
AcDbLine
 10
79.0512934000000058
 20
34.4142300000000034
 30
0.0
 11
78.2518934000000144
 21
34.4142300000000034
 31
0.0
  0
LINE
  5
12D
100
AcDbEntity
  8
0
 62
256
370
-1
 48
1.0
  6
BYLAYER
100
AcDbLine
 10
78.2518934000000144
 20
34.4142300000000034
 30
0.0
 11
78.2518934000000144
 21
35.4146300000000025
 31
0.0
  0
LINE
  5
12E
100
AcDbEntity
  8
0
 62
256
370
-1
 48
1.0
  6
BYLAYER
100
AcDbLine
 10
78.2518934000000144
 20
35.4146300000000025
 30
0.0
 11
64.2511934000000053
 21
35.4146300000000025
 31
0.0
  0
LINE
  5
12F
100
AcDbEntity
  8
0
 62
256
370
-1
 48
1.0
  6
BYLAYER
100
AcDbLine
 10
83.3011934000000167
 20
35.4146300000000025
 30
0.0
 11
83.3011934000000167
 21
34.4142300000000034
 31
0.0
  0
LINE
  5
130
100
AcDbEntity
  8
0
 62
256
370
-1
 48
1.0
  6
BYLAYER
100
AcDbLine
 10
83.3011934000000167
 20
34.4142300000000034
 30
0.0
 11
82.501793400000011
 21
34.4142300000000034
 31
0.0
  0
LINE
  5
131
100
AcDbEntity
  8
0
 62
256
370
-1
 48
1.0
  6
BYLAYER
100
AcDbLine
 10
82.501793400000011
 20
34.4142300000000034
 30
0.0
 11
82.501793400000011
 21
31.3150300000000072
 31
0.0
  0
LINE
  5
132
100
AcDbEntity
  8
0
 62
256
370
-1
 48
1.0
  6
BYLAYER
100
AcDbLine
 10
82.501793400000011
 20
31.3150300000000072
 30
0.0
 11
83.3011934000000167
 21
31.3150300000000072
 31
0.0
  0
LINE
  5
133
100
AcDbEntity
  8
0
 62
256
370
-1
 48
1.0
  6
BYLAYER
100
AcDbLine
 10
83.3011934000000167
 20
31.3150300000000072
 30
0.0
 11
83.3011934000000167
 21
25.5135300000000029
 31
0.0
  0
LINE
  5
134
100
AcDbEntity
  8
0
 62
256
370
-1
 48
1.0
  6
BYLAYER
100
AcDbLine
 10
83.3011934000000167
 20
25.5135300000000029
 30
0.0
 11
82.501793400000011
 21
25.5135300000000029
 31
0.0
  0
LINE
  5
135
100
AcDbEntity
  8
0
 62
256
370
-1
 48
1.0
  6
BYLAYER
100
AcDbLine
 10
82.501793400000011
 20
25.5135300000000029
 30
0.0
 11
82.501793400000011
 21
22.4142300000000034
 31
0.0
  0
LINE
  5
136
100
AcDbEntity
  8
0
 62
256
370
-1
 48
1.0
  6
BYLAYER
100
AcDbLine
 10
82.501793400000011
 20
22.4142300000000034
 30
0.0
 11
83.3011934000000167
 21
22.4142300000000034
 31
0.0
  0
LINE
  5
137
100
AcDbEntity
  8
0
 62
256
370
-1
 48
1.0
  6
BYLAYER
100
AcDbLine
 10
83.3011934000000167
 20
22.4142300000000034
 30
0.0
 11
83.3011934000000167
 21
21.4152300000000082
 31
0.0
  0
LINE
  5
138
100
AcDbEntity
  8
0
 62
256
370
-1
 48
1.0
  6
BYLAYER
100
AcDbLine
 10
83.3011934000000167
 20
21.4152300000000082
 30
0.0
 11
97.3018934000000115
 21
21.4152300000000082
 31
0.0
  0
LINE
  5
139
100
AcDbEntity
  8
0
 62
256
370
-1
 48
1.0
  6
BYLAYER
100
AcDbLine
 10
97.3018934000000115
 20
21.4152300000000082
 30
0.0
 11
97.3018934000000115
 21
22.4142300000000034
 31
0.0
  0
LINE
  5
13A
100
AcDbEntity
  8
0
 62
256
370
-1
 48
1.0
  6
BYLAYER
100
AcDbLine
 10
97.3018934000000115
 20
22.4142300000000034
 30
0.0
 11
98.101293400000003
 21
22.4142300000000034
 31
0.0
  0
LINE
  5
13B
100
AcDbEntity
  8
0
 62
256
370
-1
 48
1.0
  6
BYLAYER
100
AcDbLine
 10
98.101293400000003
 20
22.4142300000000034
 30
0.0
 11
98.101293400000003
 21
25.5135300000000029
 31
0.0
  0
LINE
  5
13C
100
AcDbEntity
  8
0
 62
256
370
-1
 48
1.0
  6
BYLAYER
100
AcDbLine
 10
98.101293400000003
 20
25.5135300000000029
 30
0.0
 11
97.3018934000000115
 21
25.5135300000000029
 31
0.0
  0
LINE
  5
13D
100
AcDbEntity
  8
0
 62
256
370
-1
 48
1.0
  6
BYLAYER
100
AcDbLine
 10
97.3018934000000115
 20
25.5135300000000029
 30
0.0
 11
97.3018934000000115
 21
31.3150300000000072
 31
0.0
  0
LINE
  5
13E
100
AcDbEntity
  8
0
 62
256
370
-1
 48
1.0
  6
BYLAYER
100
AcDbLine
 10
97.3018934000000115
 20
31.3150300000000072
 30
0.0
 11
98.101293400000003
 21
31.3150300000000072
 31
0.0
  0
LINE
  5
13F
100
AcDbEntity
  8
0
 62
256
370
-1
 48
1.0
  6
BYLAYER
100
AcDbLine
 10
98.101293400000003
 20
31.3150300000000072
 30
0.0
 11
98.101293400000003
 21
34.4142300000000034
 31
0.0
  0
LINE
  5
140
100
AcDbEntity
  8
0
 62
256
370
-1
 48
1.0
  6
BYLAYER
100
AcDbLine
 10
98.101293400000003
 20
34.4142300000000034
 30
0.0
 11
97.3018934000000115
 21
34.4142300000000034
 31
0.0
  0
LINE
  5
141
100
AcDbEntity
  8
0
 62
256
370
-1
 48
1.0
  6
BYLAYER
100
AcDbLine
 10
97.3018934000000115
 20
34.4142300000000034
 30
0.0
 11
97.3018934000000115
 21
35.4146300000000025
 31
0.0
  0
LINE
  5
142
100
AcDbEntity
  8
0
 62
256
370
-1
 48
1.0
  6
BYLAYER
100
AcDbLine
 10
97.3018934000000115
 20
35.4146300000000025
 30
0.0
 11
83.3011934000000167
 21
35.4146300000000025
 31
0.0
  0
LINE
  5
143
100
AcDbEntity
  8
0
 62
256
370
-1
 48
1.0
  6
BYLAYER
100
AcDbLine
 10
102.351293400000003
 20
35.4146300000000025
 30
0.0
 11
102.351293400000003
 21
34.4142300000000034
 31
0.0
  0
LINE
  5
144
100
AcDbEntity
  8
0
 62
256
370
-1
 48
1.0
  6
BYLAYER
100
AcDbLine
 10
102.351293400000003
 20
34.4142300000000034
 30
0.0
 11
101.5522934000000106
 21
34.4142300000000034
 31
0.0
  0
LINE
  5
145
100
AcDbEntity
  8
0
 62
256
370
-1
 48
1.0
  6
BYLAYER
100
AcDbLine
 10
101.5522934000000106
 20
34.4142300000000034
 30
0.0
 11
101.5522934000000106
 21
31.3150300000000072
 31
0.0
  0
LINE
  5
146
100
AcDbEntity
  8
0
 62
256
370
-1
 48
1.0
  6
BYLAYER
100
AcDbLine
 10
101.5522934000000106
 20
31.3150300000000072
 30
0.0
 11
102.351293400000003
 21
31.3150300000000072
 31
0.0
  0
LINE
  5
147
100
AcDbEntity
  8
0
 62
256
370
-1
 48
1.0
  6
BYLAYER
100
AcDbLine
 10
102.351293400000003
 20
31.3150300000000072
 30
0.0
 11
102.351293400000003
 21
25.5135300000000029
 31
0.0
  0
LINE
  5
148
100
AcDbEntity
  8
0
 62
256
370
-1
 48
1.0
  6
BYLAYER
100
AcDbLine
 10
102.351293400000003
 20
25.5135300000000029
 30
0.0
 11
101.5522934000000106
 21
25.5135300000000029
 31
0.0
  0
LINE
  5
149
100
AcDbEntity
  8
0
 62
256
370
-1
 48
1.0
  6
BYLAYER
100
AcDbLine
 10
101.5522934000000106
 20
25.5135300000000029
 30
0.0
 11
101.5522934000000106
 21
22.4142300000000034
 31
0.0
  0
LINE
  5
14A
100
AcDbEntity
  8
0
 62
256
370
-1
 48
1.0
  6
BYLAYER
100
AcDbLine
 10
101.5522934000000106
 20
22.4142300000000034
 30
0.0
 11
102.351293400000003
 21
22.4142300000000034
 31
0.0
  0
LINE
  5
14B
100
AcDbEntity
  8
0
 62
256
370
-1
 48
1.0
  6
BYLAYER
100
AcDbLine
 10
102.351293400000003
 20
22.4142300000000034
 30
0.0
 11
102.351293400000003
 21
21.4152300000000082
 31
0.0
  0
LINE
  5
14C
100
AcDbEntity
  8
0
 62
256
370
-1
 48
1.0
  6
BYLAYER
100
AcDbLine
 10
102.351293400000003
 20
21.4152300000000082
 30
0.0
 11
116.3502934000000124
 21
21.4152300000000082
 31
0.0
  0
LINE
  5
14D
100
AcDbEntity
  8
0
 62
256
370
-1
 48
1.0
  6
BYLAYER
100
AcDbLine
 10
116.3502934000000124
 20
21.4152300000000082
 30
0.0
 11
116.3502934000000124
 21
22.4142300000000034
 31
0.0
  0
LINE
  5
14E
100
AcDbEntity
  8
0
 62
256
370
-1
 48
1.0
  6
BYLAYER
100
AcDbLine
 10
116.3502934000000124
 20
22.4142300000000034
 30
0.0
 11
117.1512934000000143
 21
22.4142300000000034
 31
0.0
  0
LINE
  5
14F
100
AcDbEntity
  8
0
 62
256
370
-1
 48
1.0
  6
BYLAYER
100
AcDbLine
 10
117.1512934000000143
 20
22.4142300000000034
 30
0.0
 11
117.1512934000000143
 21
25.5135300000000029
 31
0.0
  0
LINE
  5
150
100
AcDbEntity
  8
0
 62
256
370
-1
 48
1.0
  6
BYLAYER
100
AcDbLine
 10
117.1512934000000143
 20
25.5135300000000029
 30
0.0
 11
116.3502934000000124
 21
25.5135300000000029
 31
0.0
  0
LINE
  5
151
100
AcDbEntity
  8
0
 62
256
370
-1
 48
1.0
  6
BYLAYER
100
AcDbLine
 10
116.3502934000000124
 20
25.5135300000000029
 30
0.0
 11
116.3502934000000124
 21
31.3150300000000072
 31
0.0
  0
LINE
  5
152
100
AcDbEntity
  8
0
 62
256
370
-1
 48
1.0
  6
BYLAYER
100
AcDbLine
 10
116.3502934000000124
 20
31.3150300000000072
 30
0.0
 11
117.1512934000000143
 21
31.3150300000000072
 31
0.0
  0
LINE
  5
153
100
AcDbEntity
  8
0
 62
256
370
-1
 48
1.0
  6
BYLAYER
100
AcDbLine
 10
117.1512934000000143
 20
31.3150300000000072
 30
0.0
 11
117.1512934000000143
 21
34.4142300000000034
 31
0.0
  0
LINE
  5
154
100
AcDbEntity
  8
0
 62
256
370
-1
 48
1.0
  6
BYLAYER
100
AcDbLine
 10
117.1512934000000143
 20
34.4142300000000034
 30
0.0
 11
116.3502934000000124
 21
34.4142300000000034
 31
0.0
  0
LINE
  5
155
100
AcDbEntity
  8
0
 62
256
370
-1
 48
1.0
  6
BYLAYER
100
AcDbLine
 10
116.3502934000000124
 20
34.4142300000000034
 30
0.0
 11
116.3502934000000124
 21
35.4146300000000025
 31
0.0
  0
LINE
  5
156
100
AcDbEntity
  8
0
 62
256
370
-1
 48
1.0
  6
BYLAYER
100
AcDbLine
 10
116.3502934000000124
 20
35.4146300000000025
 30
0.0
 11
102.351293400000003
 21
35.4146300000000025
 31
0.0
  0
LINE
  5
157
100
AcDbEntity
  8
0
 62
256
370
-1
 48
1.0
  6
BYLAYER
100
AcDbLine
 10
121.4012934000000143
 20
35.4146300000000025
 30
0.0
 11
121.4012934000000143
 21
34.4142300000000034
 31
0.0
  0
LINE
  5
158
100
AcDbEntity
  8
0
 62
256
370
-1
 48
1.0
  6
BYLAYER
100
AcDbLine
 10
121.4012934000000143
 20
34.4142300000000034
 30
0.0
 11
120.6002934000000124
 21
34.4142300000000034
 31
0.0
  0
LINE
  5
159
100
AcDbEntity
  8
0
 62
256
370
-1
 48
1.0
  6
BYLAYER
100
AcDbLine
 10
120.6002934000000124
 20
34.4142300000000034
 30
0.0
 11
120.6002934000000124
 21
31.3150300000000072
 31
0.0
  0
LINE
  5
15A
100
AcDbEntity
  8
0
 62
256
370
-1
 48
1.0
  6
BYLAYER
100
AcDbLine
 10
120.6002934000000124
 20
31.3150300000000072
 30
0.0
 11
121.4012934000000143
 21
31.3150300000000072
 31
0.0
  0
LINE
  5
15B
100
AcDbEntity
  8
0
 62
256
370
-1
 48
1.0
  6
BYLAYER
100
AcDbLine
 10
121.4012934000000143
 20
31.3150300000000072
 30
0.0
 11
121.4012934000000143
 21
25.5135300000000029
 31
0.0
  0
LINE
  5
15C
100
AcDbEntity
  8
0
 62
256
370
-1
 48
1.0
  6
BYLAYER
100
AcDbLine
 10
121.4012934000000143
 20
25.5135300000000029
 30
0.0
 11
120.6002934000000124
 21
25.5135300000000029
 31
0.0
  0
LINE
  5
15D
100
AcDbEntity
  8
0
 62
256
370
-1
 48
1.0
  6
BYLAYER
100
AcDbLine
 10
120.6002934000000124
 20
25.5135300000000029
 30
0.0
 11
120.6002934000000124
 21
22.4142300000000034
 31
0.0
  0
LINE
  5
15E
100
AcDbEntity
  8
0
 62
256
370
-1
 48
1.0
  6
BYLAYER
100
AcDbLine
 10
120.6002934000000124
 20
22.4142300000000034
 30
0.0
 11
121.4012934000000143
 21
22.4142300000000034
 31
0.0
  0
LINE
  5
15F
100
AcDbEntity
  8
0
 62
256
370
-1
 48
1.0
  6
BYLAYER
100
AcDbLine
 10
121.4012934000000143
 20
22.4142300000000034
 30
0.0
 11
121.4012934000000143
 21
21.4152300000000082
 31
0.0
  0
LINE
  5
160
100
AcDbEntity
  8
0
 62
256
370
-1
 48
1.0
  6
BYLAYER
100
AcDbLine
 10
121.4012934000000143
 20
21.4152300000000082
 30
0.0
 11
135.4022934000000191
 21
21.4152300000000082
 31
0.0
  0
LINE
  5
161
100
AcDbEntity
  8
0
 62
256
370
-1
 48
1.0
  6
BYLAYER
100
AcDbLine
 10
135.4022934000000191
 20
21.4152300000000082
 30
0.0
 11
135.4022934000000191
 21
22.4142300000000034
 31
0.0
  0
LINE
  5
162
100
AcDbEntity
  8
0
 62
256
370
-1
 48
1.0
  6
BYLAYER
100
AcDbLine
 10
135.4022934000000191
 20
22.4142300000000034
 30
0.0
 11
136.2012933999999973
 21
22.4142300000000034
 31
0.0
  0
LINE
  5
163
100
AcDbEntity
  8
0
 62
256
370
-1
 48
1.0
  6
BYLAYER
100
AcDbLine
 10
136.2012933999999973
 20
22.4142300000000034
 30
0.0
 11
136.2012933999999973
 21
25.5135300000000029
 31
0.0
  0
LINE
  5
164
100
AcDbEntity
  8
0
 62
256
370
-1
 48
1.0
  6
BYLAYER
100
AcDbLine
 10
136.2012933999999973
 20
25.5135300000000029
 30
0.0
 11
135.4022934000000191
 21
25.5135300000000029
 31
0.0
  0
LINE
  5
165
100
AcDbEntity
  8
0
 62
256
370
-1
 48
1.0
  6
BYLAYER
100
AcDbLine
 10
135.4022934000000191
 20
25.5135300000000029
 30
0.0
 11
135.4022934000000191
 21
31.3150300000000072
 31
0.0
  0
LINE
  5
166
100
AcDbEntity
  8
0
 62
256
370
-1
 48
1.0
  6
BYLAYER
100
AcDbLine
 10
135.4022934000000191
 20
31.3150300000000072
 30
0.0
 11
136.2012933999999973
 21
31.3150300000000072
 31
0.0
  0
LINE
  5
167
100
AcDbEntity
  8
0
 62
256
370
-1
 48
1.0
  6
BYLAYER
100
AcDbLine
 10
136.2012933999999973
 20
31.3150300000000072
 30
0.0
 11
136.2012933999999973
 21
34.4142300000000034
 31
0.0
  0
LINE
  5
168
100
AcDbEntity
  8
0
 62
256
370
-1
 48
1.0
  6
BYLAYER
100
AcDbLine
 10
136.2012933999999973
 20
34.4142300000000034
 30
0.0
 11
135.4022934000000191
 21
34.4142300000000034
 31
0.0
  0
LINE
  5
169
100
AcDbEntity
  8
0
 62
256
370
-1
 48
1.0
  6
BYLAYER
100
AcDbLine
 10
135.4022934000000191
 20
34.4142300000000034
 30
0.0
 11
135.4022934000000191
 21
35.4146300000000025
 31
0.0
  0
LINE
  5
16A
100
AcDbEntity
  8
0
 62
256
370
-1
 48
1.0
  6
BYLAYER
100
AcDbLine
 10
135.4022934000000191
 20
35.4146300000000025
 30
0.0
 11
121.4012934000000143
 21
35.4146300000000025
 31
0.0
  0
LINE
  5
16B
100
AcDbEntity
  8
0
 62
256
370
-1
 48
1.0
  6
BYLAYER
100
AcDbLine
 10
140.4512933999999973
 20
35.4146300000000025
 30
0.0
 11
140.4512933999999973
 21
34.4142300000000034
 31
0.0
  0
LINE
  5
16C
100
AcDbEntity
  8
0
 62
256
370
-1
 48
1.0
  6
BYLAYER
100
AcDbLine
 10
140.4512933999999973
 20
34.4142300000000034
 30
0.0
 11
139.6522934000000191
 21
34.4142300000000034
 31
0.0
  0
LINE
  5
16D
100
AcDbEntity
  8
0
 62
256
370
-1
 48
1.0
  6
BYLAYER
100
AcDbLine
 10
139.6522934000000191
 20
34.4142300000000034
 30
0.0
 11
139.6522934000000191
 21
31.3150300000000072
 31
0.0
  0
LINE
  5
16E
100
AcDbEntity
  8
0
 62
256
370
-1
 48
1.0
  6
BYLAYER
100
AcDbLine
 10
139.6522934000000191
 20
31.3150300000000072
 30
0.0
 11
140.4512933999999973
 21
31.3150300000000072
 31
0.0
  0
LINE
  5
16F
100
AcDbEntity
  8
0
 62
256
370
-1
 48
1.0
  6
BYLAYER
100
AcDbLine
 10
140.4512933999999973
 20
31.3150300000000072
 30
0.0
 11
140.4512933999999973
 21
25.5135300000000029
 31
0.0
  0
LINE
  5
170
100
AcDbEntity
  8
0
 62
256
370
-1
 48
1.0
  6
BYLAYER
100
AcDbLine
 10
140.4512933999999973
 20
25.5135300000000029
 30
0.0
 11
139.6522934000000191
 21
25.5135300000000029
 31
0.0
  0
LINE
  5
171
100
AcDbEntity
  8
0
 62
256
370
-1
 48
1.0
  6
BYLAYER
100
AcDbLine
 10
139.6522934000000191
 20
25.5135300000000029
 30
0.0
 11
139.6522934000000191
 21
22.4142300000000034
 31
0.0
  0
LINE
  5
172
100
AcDbEntity
  8
0
 62
256
370
-1
 48
1.0
  6
BYLAYER
100
AcDbLine
 10
139.6522934000000191
 20
22.4142300000000034
 30
0.0
 11
140.4512933999999973
 21
22.4142300000000034
 31
0.0
  0
LINE
  5
173
100
AcDbEntity
  8
0
 62
256
370
-1
 48
1.0
  6
BYLAYER
100
AcDbLine
 10
140.4512933999999973
 20
22.4142300000000034
 30
0.0
 11
140.4512933999999973
 21
21.4152300000000082
 31
0.0
  0
LINE
  5
174
100
AcDbEntity
  8
0
 62
256
370
-1
 48
1.0
  6
BYLAYER
100
AcDbLine
 10
140.4512933999999973
 20
21.4152300000000082
 30
0.0
 11
154.4502934000000209
 21
21.4152300000000082
 31
0.0
  0
LINE
  5
175
100
AcDbEntity
  8
0
 62
256
370
-1
 48
1.0
  6
BYLAYER
100
AcDbLine
 10
154.4502934000000209
 20
21.4152300000000082
 30
0.0
 11
154.4502934000000209
 21
22.4142300000000034
 31
0.0
  0
LINE
  5
176
100
AcDbEntity
  8
0
 62
256
370
-1
 48
1.0
  6
BYLAYER
100
AcDbLine
 10
154.4502934000000209
 20
22.4142300000000034
 30
0.0
 11
155.2512934000000087
 21
22.4142300000000034
 31
0.0
  0
LINE
  5
177
100
AcDbEntity
  8
0
 62
256
370
-1
 48
1.0
  6
BYLAYER
100
AcDbLine
 10
155.2512934000000087
 20
22.4142300000000034
 30
0.0
 11
155.2512934000000087
 21
25.5135300000000029
 31
0.0
  0
LINE
  5
178
100
AcDbEntity
  8
0
 62
256
370
-1
 48
1.0
  6
BYLAYER
100
AcDbLine
 10
155.2512934000000087
 20
25.5135300000000029
 30
0.0
 11
154.4502934000000209
 21
25.5135300000000029
 31
0.0
  0
LINE
  5
179
100
AcDbEntity
  8
0
 62
256
370
-1
 48
1.0
  6
BYLAYER
100
AcDbLine
 10
154.4502934000000209
 20
25.5135300000000029
 30
0.0
 11
154.4502934000000209
 21
31.3150300000000072
 31
0.0
  0
LINE
  5
17A
100
AcDbEntity
  8
0
 62
256
370
-1
 48
1.0
  6
BYLAYER
100
AcDbLine
 10
154.4502934000000209
 20
31.3150300000000072
 30
0.0
 11
155.2512934000000087
 21
31.3150300000000072
 31
0.0
  0
LINE
  5
17B
100
AcDbEntity
  8
0
 62
256
370
-1
 48
1.0
  6
BYLAYER
100
AcDbLine
 10
155.2512934000000087
 20
31.3150300000000072
 30
0.0
 11
155.2512934000000087
 21
34.4142300000000034
 31
0.0
  0
LINE
  5
17C
100
AcDbEntity
  8
0
 62
256
370
-1
 48
1.0
  6
BYLAYER
100
AcDbLine
 10
155.2512934000000087
 20
34.4142300000000034
 30
0.0
 11
154.4502934000000209
 21
34.4142300000000034
 31
0.0
  0
LINE
  5
17D
100
AcDbEntity
  8
0
 62
256
370
-1
 48
1.0
  6
BYLAYER
100
AcDbLine
 10
154.4502934000000209
 20
34.4142300000000034
 30
0.0
 11
154.4502934000000209
 21
35.4146300000000025
 31
0.0
  0
LINE
  5
17E
100
AcDbEntity
  8
0
 62
256
370
-1
 48
1.0
  6
BYLAYER
100
AcDbLine
 10
154.4502934000000209
 20
35.4146300000000025
 30
0.0
 11
140.4512933999999973
 21
35.4146300000000025
 31
0.0
  0
LINE
  5
17F
100
AcDbEntity
  8
0
 62
256
370
-1
 48
1.0
  6
BYLAYER
100
AcDbLine
 10
159.5012934000000087
 20
35.4146300000000025
 30
0.0
 11
159.5012934000000087
 21
34.4142300000000034
 31
0.0
  0
LINE
  5
180
100
AcDbEntity
  8
0
 62
256
370
-1
 48
1.0
  6
BYLAYER
100
AcDbLine
 10
159.5012934000000087
 20
34.4142300000000034
 30
0.0
 11
158.7002934000000209
 21
34.4142300000000034
 31
0.0
  0
LINE
  5
181
100
AcDbEntity
  8
0
 62
256
370
-1
 48
1.0
  6
BYLAYER
100
AcDbLine
 10
158.7002934000000209
 20
34.4142300000000034
 30
0.0
 11
158.7002934000000209
 21
31.3150300000000072
 31
0.0
  0
LINE
  5
182
100
AcDbEntity
  8
0
 62
256
370
-1
 48
1.0
  6
BYLAYER
100
AcDbLine
 10
158.7002934000000209
 20
31.3150300000000072
 30
0.0
 11
159.5012934000000087
 21
31.3150300000000072
 31
0.0
  0
LINE
  5
183
100
AcDbEntity
  8
0
 62
256
370
-1
 48
1.0
  6
BYLAYER
100
AcDbLine
 10
159.5012934000000087
 20
31.3150300000000072
 30
0.0
 11
159.5012934000000087
 21
25.5135300000000029
 31
0.0
  0
LINE
  5
184
100
AcDbEntity
  8
0
 62
256
370
-1
 48
1.0
  6
BYLAYER
100
AcDbLine
 10
159.5012934000000087
 20
25.5135300000000029
 30
0.0
 11
158.7002934000000209
 21
25.5135300000000029
 31
0.0
  0
LINE
  5
185
100
AcDbEntity
  8
0
 62
256
370
-1
 48
1.0
  6
BYLAYER
100
AcDbLine
 10
158.7002934000000209
 20
25.5135300000000029
 30
0.0
 11
158.7002934000000209
 21
22.4142300000000034
 31
0.0
  0
LINE
  5
186
100
AcDbEntity
  8
0
 62
256
370
-1
 48
1.0
  6
BYLAYER
100
AcDbLine
 10
158.7002934000000209
 20
22.4142300000000034
 30
0.0
 11
159.5012934000000087
 21
22.4142300000000034
 31
0.0
  0
LINE
  5
187
100
AcDbEntity
  8
0
 62
256
370
-1
 48
1.0
  6
BYLAYER
100
AcDbLine
 10
159.5012934000000087
 20
22.4142300000000034
 30
0.0
 11
159.5012934000000087
 21
21.4152300000000082
 31
0.0
  0
LINE
  5
188
100
AcDbEntity
  8
0
 62
256
370
-1
 48
1.0
  6
BYLAYER
100
AcDbLine
 10
159.5012934000000087
 20
21.4152300000000082
 30
0.0
 11
173.5022934000000134
 21
21.4152300000000082
 31
0.0
  0
LINE
  5
189
100
AcDbEntity
  8
0
 62
256
370
-1
 48
1.0
  6
BYLAYER
100
AcDbLine
 10
173.5022934000000134
 20
21.4152300000000082
 30
0.0
 11
173.5022934000000134
 21
22.4142300000000034
 31
0.0
  0
LINE
  5
18A
100
AcDbEntity
  8
0
 62
256
370
-1
 48
1.0
  6
BYLAYER
100
AcDbLine
 10
173.5022934000000134
 20
22.4142300000000034
 30
0.0
 11
174.30129340000002
 21
22.4142300000000034
 31
0.0
  0
LINE
  5
18B
100
AcDbEntity
  8
0
 62
256
370
-1
 48
1.0
  6
BYLAYER
100
AcDbLine
 10
174.30129340000002
 20
22.4142300000000034
 30
0.0
 11
174.30129340000002
 21
25.5135300000000029
 31
0.0
  0
LINE
  5
18C
100
AcDbEntity
  8
0
 62
256
370
-1
 48
1.0
  6
BYLAYER
100
AcDbLine
 10
174.30129340000002
 20
25.5135300000000029
 30
0.0
 11
173.5022934000000134
 21
25.5135300000000029
 31
0.0
  0
LINE
  5
18D
100
AcDbEntity
  8
0
 62
256
370
-1
 48
1.0
  6
BYLAYER
100
AcDbLine
 10
173.5022934000000134
 20
25.5135300000000029
 30
0.0
 11
173.5022934000000134
 21
31.3150300000000072
 31
0.0
  0
LINE
  5
18E
100
AcDbEntity
  8
0
 62
256
370
-1
 48
1.0
  6
BYLAYER
100
AcDbLine
 10
173.5022934000000134
 20
31.3150300000000072
 30
0.0
 11
174.30129340000002
 21
31.3150300000000072
 31
0.0
  0
LINE
  5
18F
100
AcDbEntity
  8
0
 62
256
370
-1
 48
1.0
  6
BYLAYER
100
AcDbLine
 10
174.30129340000002
 20
31.3150300000000072
 30
0.0
 11
174.30129340000002
 21
34.4142300000000034
 31
0.0
  0
LINE
  5
190
100
AcDbEntity
  8
0
 62
256
370
-1
 48
1.0
  6
BYLAYER
100
AcDbLine
 10
174.30129340000002
 20
34.4142300000000034
 30
0.0
 11
173.5022934000000134
 21
34.4142300000000034
 31
0.0
  0
LINE
  5
191
100
AcDbEntity
  8
0
 62
256
370
-1
 48
1.0
  6
BYLAYER
100
AcDbLine
 10
173.5022934000000134
 20
34.4142300000000034
 30
0.0
 11
173.5022934000000134
 21
35.4146300000000025
 31
0.0
  0
LINE
  5
192
100
AcDbEntity
  8
0
 62
256
370
-1
 48
1.0
  6
BYLAYER
100
AcDbLine
 10
173.5022934000000134
 20
35.4146300000000025
 30
0.0
 11
159.5012934000000087
 21
35.4146300000000025
 31
0.0
  0
LINE
  5
193
100
AcDbEntity
  8
0
 62
256
370
-1
 48
1.0
  6
BYLAYER
100
AcDbLine
 10
178.55129340000002
 20
35.4146300000000025
 30
0.0
 11
178.55129340000002
 21
34.4142300000000034
 31
0.0
  0
LINE
  5
194
100
AcDbEntity
  8
0
 62
256
370
-1
 48
1.0
  6
BYLAYER
100
AcDbLine
 10
178.55129340000002
 20
34.4142300000000034
 30
0.0
 11
177.7522934000000134
 21
34.4142300000000034
 31
0.0
  0
LINE
  5
195
100
AcDbEntity
  8
0
 62
256
370
-1
 48
1.0
  6
BYLAYER
100
AcDbLine
 10
177.7522934000000134
 20
34.4142300000000034
 30
0.0
 11
177.7522934000000134
 21
31.3150300000000072
 31
0.0
  0
LINE
  5
196
100
AcDbEntity
  8
0
 62
256
370
-1
 48
1.0
  6
BYLAYER
100
AcDbLine
 10
177.7522934000000134
 20
31.3150300000000072
 30
0.0
 11
178.55129340000002
 21
31.3150300000000072
 31
0.0
  0
LINE
  5
197
100
AcDbEntity
  8
0
 62
256
370
-1
 48
1.0
  6
BYLAYER
100
AcDbLine
 10
178.55129340000002
 20
31.3150300000000072
 30
0.0
 11
178.55129340000002
 21
25.5135300000000029
 31
0.0
  0
LINE
  5
198
100
AcDbEntity
  8
0
 62
256
370
-1
 48
1.0
  6
BYLAYER
100
AcDbLine
 10
178.55129340000002
 20
25.5135300000000029
 30
0.0
 11
177.7522934000000134
 21
25.5135300000000029
 31
0.0
  0
LINE
  5
199
100
AcDbEntity
  8
0
 62
256
370
-1
 48
1.0
  6
BYLAYER
100
AcDbLine
 10
177.7522934000000134
 20
25.5135300000000029
 30
0.0
 11
177.7522934000000134
 21
22.4142300000000034
 31
0.0
  0
LINE
  5
19A
100
AcDbEntity
  8
0
 62
256
370
-1
 48
1.0
  6
BYLAYER
100
AcDbLine
 10
177.7522934000000134
 20
22.4142300000000034
 30
0.0
 11
178.55129340000002
 21
22.4142300000000034
 31
0.0
  0
LINE
  5
19B
100
AcDbEntity
  8
0
 62
256
370
-1
 48
1.0
  6
BYLAYER
100
AcDbLine
 10
178.55129340000002
 20
22.4142300000000034
 30
0.0
 11
178.55129340000002
 21
21.4152300000000082
 31
0.0
  0
LINE
  5
19C
100
AcDbEntity
  8
0
 62
256
370
-1
 48
1.0
  6
BYLAYER
100
AcDbLine
 10
178.55129340000002
 20
21.4152300000000082
 30
0.0
 11
192.5522933999999964
 21
21.4152300000000082
 31
0.0
  0
LINE
  5
19D
100
AcDbEntity
  8
0
 62
256
370
-1
 48
1.0
  6
BYLAYER
100
AcDbLine
 10
192.5522933999999964
 20
21.4152300000000082
 30
0.0
 11
192.5522933999999964
 21
22.4142300000000034
 31
0.0
  0
LINE
  5
19E
100
AcDbEntity
  8
0
 62
256
370
-1
 48
1.0
  6
BYLAYER
100
AcDbLine
 10
192.5522933999999964
 20
22.4142300000000034
 30
0.0
 11
193.351293400000003
 21
22.4142300000000034
 31
0.0
  0
LINE
  5
19F
100
AcDbEntity
  8
0
 62
256
370
-1
 48
1.0
  6
BYLAYER
100
AcDbLine
 10
193.351293400000003
 20
22.4142300000000034
 30
0.0
 11
193.351293400000003
 21
25.5135300000000029
 31
0.0
  0
LINE
  5
1A0
100
AcDbEntity
  8
0
 62
256
370
-1
 48
1.0
  6
BYLAYER
100
AcDbLine
 10
193.351293400000003
 20
25.5135300000000029
 30
0.0
 11
192.5522933999999964
 21
25.5135300000000029
 31
0.0
  0
LINE
  5
1A1
100
AcDbEntity
  8
0
 62
256
370
-1
 48
1.0
  6
BYLAYER
100
AcDbLine
 10
192.5522933999999964
 20
25.5135300000000029
 30
0.0
 11
192.5522933999999964
 21
31.3150300000000072
 31
0.0
  0
LINE
  5
1A2
100
AcDbEntity
  8
0
 62
256
370
-1
 48
1.0
  6
BYLAYER
100
AcDbLine
 10
192.5522933999999964
 20
31.3150300000000072
 30
0.0
 11
193.351293400000003
 21
31.3150300000000072
 31
0.0
  0
LINE
  5
1A3
100
AcDbEntity
  8
0
 62
256
370
-1
 48
1.0
  6
BYLAYER
100
AcDbLine
 10
193.351293400000003
 20
31.3150300000000072
 30
0.0
 11
193.351293400000003
 21
34.4142300000000034
 31
0.0
  0
LINE
  5
1A4
100
AcDbEntity
  8
0
 62
256
370
-1
 48
1.0
  6
BYLAYER
100
AcDbLine
 10
193.351293400000003
 20
34.4142300000000034
 30
0.0
 11
192.5522933999999964
 21
34.4142300000000034
 31
0.0
  0
LINE
  5
1A5
100
AcDbEntity
  8
0
 62
256
370
-1
 48
1.0
  6
BYLAYER
100
AcDbLine
 10
192.5522933999999964
 20
34.4142300000000034
 30
0.0
 11
192.5522933999999964
 21
35.4146300000000025
 31
0.0
  0
LINE
  5
1A6
100
AcDbEntity
  8
0
 62
256
370
-1
 48
1.0
  6
BYLAYER
100
AcDbLine
 10
192.5522933999999964
 20
35.4146300000000025
 30
0.0
 11
178.55129340000002
 21
35.4146300000000025
 31
0.0
  0
LINE
  5
1A7
100
AcDbEntity
  8
0
 62
256
370
-1
 48
1.0
  6
BYLAYER
100
AcDbLine
 10
197.601293400000003
 20
35.4146300000000025
 30
0.0
 11
197.601293400000003
 21
34.4142300000000034
 31
0.0
  0
LINE
  5
1A8
100
AcDbEntity
  8
0
 62
256
370
-1
 48
1.0
  6
BYLAYER
100
AcDbLine
 10
197.601293400000003
 20
34.4142300000000034
 30
0.0
 11
196.8022933999999964
 21
34.4142300000000034
 31
0.0
  0
LINE
  5
1A9
100
AcDbEntity
  8
0
 62
256
370
-1
 48
1.0
  6
BYLAYER
100
AcDbLine
 10
196.8022933999999964
 20
34.4142300000000034
 30
0.0
 11
196.8022933999999964
 21
31.3150300000000072
 31
0.0
  0
LINE
  5
1AA
100
AcDbEntity
  8
0
 62
256
370
-1
 48
1.0
  6
BYLAYER
100
AcDbLine
 10
196.8022933999999964
 20
31.3150300000000072
 30
0.0
 11
197.601293400000003
 21
31.3150300000000072
 31
0.0
  0
LINE
  5
1AB
100
AcDbEntity
  8
0
 62
256
370
-1
 48
1.0
  6
BYLAYER
100
AcDbLine
 10
197.601293400000003
 20
31.3150300000000072
 30
0.0
 11
197.601293400000003
 21
25.5135300000000029
 31
0.0
  0
LINE
  5
1AC
100
AcDbEntity
  8
0
 62
256
370
-1
 48
1.0
  6
BYLAYER
100
AcDbLine
 10
197.601293400000003
 20
25.5135300000000029
 30
0.0
 11
196.8022933999999964
 21
25.5135300000000029
 31
0.0
  0
LINE
  5
1AD
100
AcDbEntity
  8
0
 62
256
370
-1
 48
1.0
  6
BYLAYER
100
AcDbLine
 10
196.8022933999999964
 20
25.5135300000000029
 30
0.0
 11
196.8022933999999964
 21
22.4142300000000034
 31
0.0
  0
LINE
  5
1AE
100
AcDbEntity
  8
0
 62
256
370
-1
 48
1.0
  6
BYLAYER
100
AcDbLine
 10
196.8022933999999964
 20
22.4142300000000034
 30
0.0
 11
197.601293400000003
 21
22.4142300000000034
 31
0.0
  0
LINE
  5
1AF
100
AcDbEntity
  8
0
 62
256
370
-1
 48
1.0
  6
BYLAYER
100
AcDbLine
 10
197.601293400000003
 20
22.4142300000000034
 30
0.0
 11
197.601293400000003
 21
21.4152300000000082
 31
0.0
  0
LINE
  5
1B0
100
AcDbEntity
  8
0
 62
256
370
-1
 48
1.0
  6
BYLAYER
100
AcDbLine
 10
197.601293400000003
 20
21.4152300000000082
 30
0.0
 11
211.6002933999999982
 21
21.4152300000000082
 31
0.0
  0
LINE
  5
1B1
100
AcDbEntity
  8
0
 62
256
370
-1
 48
1.0
  6
BYLAYER
100
AcDbLine
 10
211.6002933999999982
 20
21.4152300000000082
 30
0.0
 11
211.6002933999999982
 21
22.4142300000000034
 31
0.0
  0
LINE
  5
1B2
100
AcDbEntity
  8
0
 62
256
370
-1
 48
1.0
  6
BYLAYER
100
AcDbLine
 10
211.6002933999999982
 20
22.4142300000000034
 30
0.0
 11
212.4012934000000143
 21
22.4142300000000034
 31
0.0
  0
LINE
  5
1B3
100
AcDbEntity
  8
0
 62
256
370
-1
 48
1.0
  6
BYLAYER
100
AcDbLine
 10
212.4012934000000143
 20
22.4142300000000034
 30
0.0
 11
212.4012934000000143
 21
25.5135300000000029
 31
0.0
  0
LINE
  5
1B4
100
AcDbEntity
  8
0
 62
256
370
-1
 48
1.0
  6
BYLAYER
100
AcDbLine
 10
212.4012934000000143
 20
25.5135300000000029
 30
0.0
 11
211.6002933999999982
 21
25.5135300000000029
 31
0.0
  0
LINE
  5
1B5
100
AcDbEntity
  8
0
 62
256
370
-1
 48
1.0
  6
BYLAYER
100
AcDbLine
 10
211.6002933999999982
 20
25.5135300000000029
 30
0.0
 11
211.6002933999999982
 21
31.3150300000000072
 31
0.0
  0
LINE
  5
1B6
100
AcDbEntity
  8
0
 62
256
370
-1
 48
1.0
  6
BYLAYER
100
AcDbLine
 10
211.6002933999999982
 20
31.3150300000000072
 30
0.0
 11
212.4012934000000143
 21
31.3150300000000072
 31
0.0
  0
LINE
  5
1B7
100
AcDbEntity
  8
0
 62
256
370
-1
 48
1.0
  6
BYLAYER
100
AcDbLine
 10
212.4012934000000143
 20
31.3150300000000072
 30
0.0
 11
212.4012934000000143
 21
34.4142300000000034
 31
0.0
  0
LINE
  5
1B8
100
AcDbEntity
  8
0
 62
256
370
-1
 48
1.0
  6
BYLAYER
100
AcDbLine
 10
212.4012934000000143
 20
34.4142300000000034
 30
0.0
 11
211.6002933999999982
 21
34.4142300000000034
 31
0.0
  0
LINE
  5
1B9
100
AcDbEntity
  8
0
 62
256
370
-1
 48
1.0
  6
BYLAYER
100
AcDbLine
 10
211.6002933999999982
 20
34.4142300000000034
 30
0.0
 11
211.6002933999999982
 21
35.4146300000000025
 31
0.0
  0
LINE
  5
1BA
100
AcDbEntity
  8
0
 62
256
370
-1
 48
1.0
  6
BYLAYER
100
AcDbLine
 10
211.6002933999999982
 20
35.4146300000000025
 30
0.0
 11
197.601293400000003
 21
35.4146300000000025
 31
0.0
  0
LINE
  5
1BB
100
AcDbEntity
  8
0
 62
256
370
-1
 48
1.0
  6
BYLAYER
100
AcDbLine
 10
216.6512934000000143
 20
35.4146300000000025
 30
0.0
 11
216.6512934000000143
 21
34.4142300000000034
 31
0.0
  0
LINE
  5
1BC
100
AcDbEntity
  8
0
 62
256
370
-1
 48
1.0
  6
BYLAYER
100
AcDbLine
 10
216.6512934000000143
 20
34.4142300000000034
 30
0.0
 11
215.8502933999999982
 21
34.4142300000000034
 31
0.0
  0
LINE
  5
1BD
100
AcDbEntity
  8
0
 62
256
370
-1
 48
1.0
  6
BYLAYER
100
AcDbLine
 10
215.8502933999999982
 20
34.4142300000000034
 30
0.0
 11
215.8502933999999982
 21
31.3150300000000072
 31
0.0
  0
LINE
  5
1BE
100
AcDbEntity
  8
0
 62
256
370
-1
 48
1.0
  6
BYLAYER
100
AcDbLine
 10
215.8502933999999982
 20
31.3150300000000072
 30
0.0
 11
216.6512934000000143
 21
31.3150300000000072
 31
0.0
  0
LINE
  5
1BF
100
AcDbEntity
  8
0
 62
256
370
-1
 48
1.0
  6
BYLAYER
100
AcDbLine
 10
216.6512934000000143
 20
31.3150300000000072
 30
0.0
 11
216.6512934000000143
 21
25.5135300000000029
 31
0.0
  0
LINE
  5
1C0
100
AcDbEntity
  8
0
 62
256
370
-1
 48
1.0
  6
BYLAYER
100
AcDbLine
 10
216.6512934000000143
 20
25.5135300000000029
 30
0.0
 11
215.8502933999999982
 21
25.5135300000000029
 31
0.0
  0
LINE
  5
1C1
100
AcDbEntity
  8
0
 62
256
370
-1
 48
1.0
  6
BYLAYER
100
AcDbLine
 10
215.8502933999999982
 20
25.5135300000000029
 30
0.0
 11
215.8502933999999982
 21
22.4142300000000034
 31
0.0
  0
LINE
  5
1C2
100
AcDbEntity
  8
0
 62
256
370
-1
 48
1.0
  6
BYLAYER
100
AcDbLine
 10
215.8502933999999982
 20
22.4142300000000034
 30
0.0
 11
216.6512934000000143
 21
22.4142300000000034
 31
0.0
  0
LINE
  5
1C3
100
AcDbEntity
  8
0
 62
256
370
-1
 48
1.0
  6
BYLAYER
100
AcDbLine
 10
216.6512934000000143
 20
22.4142300000000034
 30
0.0
 11
216.6512934000000143
 21
21.4152300000000082
 31
0.0
  0
LINE
  5
1C4
100
AcDbEntity
  8
0
 62
256
370
-1
 48
1.0
  6
BYLAYER
100
AcDbLine
 10
216.6512934000000143
 20
21.4152300000000082
 30
0.0
 11
230.6522934000000191
 21
21.4152300000000082
 31
0.0
  0
LINE
  5
1C5
100
AcDbEntity
  8
0
 62
256
370
-1
 48
1.0
  6
BYLAYER
100
AcDbLine
 10
230.6522934000000191
 20
21.4152300000000082
 30
0.0
 11
230.6522934000000191
 21
22.4142300000000034
 31
0.0
  0
LINE
  5
1C6
100
AcDbEntity
  8
0
 62
256
370
-1
 48
1.0
  6
BYLAYER
100
AcDbLine
 10
230.6522934000000191
 20
22.4142300000000034
 30
0.0
 11
231.4512933999999973
 21
22.4142300000000034
 31
0.0
  0
LINE
  5
1C7
100
AcDbEntity
  8
0
 62
256
370
-1
 48
1.0
  6
BYLAYER
100
AcDbLine
 10
231.4512933999999973
 20
22.4142300000000034
 30
0.0
 11
231.4512933999999973
 21
25.5135300000000029
 31
0.0
  0
LINE
  5
1C8
100
AcDbEntity
  8
0
 62
256
370
-1
 48
1.0
  6
BYLAYER
100
AcDbLine
 10
231.4512933999999973
 20
34.4142300000000034
 30
0.0
 11
230.6522934000000191
 21
34.4142300000000034
 31
0.0
  0
LINE
  5
1C9
100
AcDbEntity
  8
0
 62
256
370
-1
 48
1.0
  6
BYLAYER
100
AcDbLine
 10
230.6522934000000191
 20
34.4142300000000034
 30
0.0
 11
230.6522934000000191
 21
35.4146300000000025
 31
0.0
  0
LINE
  5
1CA
100
AcDbEntity
  8
0
 62
256
370
-1
 48
1.0
  6
BYLAYER
100
AcDbLine
 10
242.8432934000000216
 20
35.4146300000000025
 30
0.0
 11
242.8432934000000216
 21
34.4142300000000034
 31
0.0
  0
LINE
  5
1CB
100
AcDbEntity
  8
0
 62
256
370
-1
 48
1.0
  6
BYLAYER
100
AcDbLine
 10
242.8432934000000216
 20
34.4142300000000034
 30
0.0
 11
242.044293400000015
 21
34.4142300000000034
 31
0.0
  0
LINE
  5
1CC
100
AcDbEntity
  8
0
 62
256
370
-1
 48
1.0
  6
BYLAYER
100
AcDbLine
 10
242.044293400000015
 20
34.4142300000000034
 30
0.0
 11
242.044293400000015
 21
31.3150300000000072
 31
0.0
  0
LINE
  5
1CD
100
AcDbEntity
  8
0
 62
256
370
-1
 48
1.0
  6
BYLAYER
100
AcDbLine
 10
242.044293400000015
 20
31.3150300000000072
 30
0.0
 11
242.8432934000000216
 21
31.3150300000000072
 31
0.0
  0
LINE
  5
1CE
100
AcDbEntity
  8
0
 62
256
370
-1
 48
1.0
  6
BYLAYER
100
AcDbLine
 10
242.8432934000000216
 20
31.3150300000000072
 30
0.0
 11
242.8432934000000216
 21
25.5135300000000029
 31
0.0
  0
LINE
  5
1CF
100
AcDbEntity
  8
0
 62
256
370
-1
 48
1.0
  6
BYLAYER
100
AcDbLine
 10
242.8432934000000216
 20
25.5135300000000029
 30
0.0
 11
242.044293400000015
 21
25.5135300000000029
 31
0.0
  0
LINE
  5
1D0
100
AcDbEntity
  8
0
 62
256
370
-1
 48
1.0
  6
BYLAYER
100
AcDbLine
 10
242.044293400000015
 20
25.5135300000000029
 30
0.0
 11
242.044293400000015
 21
22.4142300000000034
 31
0.0
  0
LINE
  5
1D1
100
AcDbEntity
  8
0
 62
256
370
-1
 48
1.0
  6
BYLAYER
100
AcDbLine
 10
242.044293400000015
 20
22.4142300000000034
 30
0.0
 11
242.8432934000000216
 21
22.4142300000000034
 31
0.0
  0
LINE
  5
1D2
100
AcDbEntity
  8
0
 62
256
370
-1
 48
1.0
  6
BYLAYER
100
AcDbLine
 10
242.8432934000000216
 20
22.4142300000000034
 30
0.0
 11
242.8432934000000216
 21
21.4152300000000082
 31
0.0
  0
LINE
  5
1D3
100
AcDbEntity
  8
0
 62
256
370
-1
 48
1.0
  6
BYLAYER
100
AcDbLine
 10
242.8432934000000216
 20
21.4152300000000082
 30
0.0
 11
256.8432933999999932
 21
21.4152300000000082
 31
0.0
  0
LINE
  5
1D4
100
AcDbEntity
  8
0
 62
256
370
-1
 48
1.0
  6
BYLAYER
100
AcDbLine
 10
256.8432933999999932
 20
21.4152300000000082
 30
0.0
 11
256.8432933999999932
 21
22.4142300000000034
 31
0.0
  0
LINE
  5
1D5
100
AcDbEntity
  8
0
 62
256
370
-1
 48
1.0
  6
BYLAYER
100
AcDbLine
 10
256.8432933999999932
 20
22.4142300000000034
 30
0.0
 11
257.6432934000000614
 21
22.4142300000000034
 31
0.0
  0
LINE
  5
1D6
100
AcDbEntity
  8
0
 62
256
370
-1
 48
1.0
  6
BYLAYER
100
AcDbLine
 10
257.6432934000000614
 20
22.4142300000000034
 30
0.0
 11
257.6432934000000614
 21
25.5135300000000029
 31
0.0
  0
LINE
  5
1D7
100
AcDbEntity
  8
0
 62
256
370
-1
 48
1.0
  6
BYLAYER
100
AcDbLine
 10
257.6432934000000614
 20
25.5135300000000029
 30
0.0
 11
256.8432933999999932
 21
25.5135300000000029
 31
0.0
  0
LINE
  5
1D8
100
AcDbEntity
  8
0
 62
256
370
-1
 48
1.0
  6
BYLAYER
100
AcDbLine
 10
256.8432933999999932
 20
25.5135300000000029
 30
0.0
 11
256.8432933999999932
 21
31.3150300000000072
 31
0.0
  0
LINE
  5
1D9
100
AcDbEntity
  8
0
 62
256
370
-1
 48
1.0
  6
BYLAYER
100
AcDbLine
 10
256.8432933999999932
 20
31.3150300000000072
 30
0.0
 11
257.6432934000000614
 21
31.3150300000000072
 31
0.0
  0
LINE
  5
1DA
100
AcDbEntity
  8
0
 62
256
370
-1
 48
1.0
  6
BYLAYER
100
AcDbLine
 10
257.6432934000000614
 20
31.3150300000000072
 30
0.0
 11
257.6432934000000614
 21
34.4142300000000034
 31
0.0
  0
LINE
  5
1DB
100
AcDbEntity
  8
0
 62
256
370
-1
 48
1.0
  6
BYLAYER
100
AcDbLine
 10
257.6432934000000614
 20
34.4142300000000034
 30
0.0
 11
256.8432933999999932
 21
34.4142300000000034
 31
0.0
  0
LINE
  5
1DC
100
AcDbEntity
  8
0
 62
256
370
-1
 48
1.0
  6
BYLAYER
100
AcDbLine
 10
256.8432933999999932
 20
34.4142300000000034
 30
0.0
 11
256.8432933999999932
 21
35.4146300000000025
 31
0.0
  0
LINE
  5
1DD
100
AcDbEntity
  8
0
 62
256
370
-1
 48
1.0
  6
BYLAYER
100
AcDbLine
 10
256.8432933999999932
 20
35.4146300000000025
 30
0.0
 11
242.8432934000000216
 21
35.4146300000000025
 31
0.0
  0
LINE
  5
1DE
100
AcDbEntity
  8
0
 62
256
370
-1
 48
1.0
  6
BYLAYER
100
AcDbLine
 10
269.0372933999999532
 20
35.4146300000000025
 30
0.0
 11
269.0372933999999532
 21
34.4142300000000034
 31
0.0
  0
LINE
  5
1DF
100
AcDbEntity
  8
0
 62
256
370
-1
 48
1.0
  6
BYLAYER
100
AcDbLine
 10
269.0372933999999532
 20
34.4142300000000034
 30
0.0
 11
268.238293399999975
 21
34.4142300000000034
 31
0.0
  0
LINE
  5
1E0
100
AcDbEntity
  8
0
 62
256
370
-1
 48
1.0
  6
BYLAYER
100
AcDbLine
 10
268.238293399999975
 20
34.4142300000000034
 30
0.0
 11
268.238293399999975
 21
31.3150300000000072
 31
0.0
  0
LINE
  5
1E1
100
AcDbEntity
  8
0
 62
256
370
-1
 48
1.0
  6
BYLAYER
100
AcDbLine
 10
268.238293399999975
 20
31.3150300000000072
 30
0.0
 11
269.0372933999999532
 21
31.3150300000000072
 31
0.0
  0
LINE
  5
1E2
100
AcDbEntity
  8
0
 62
256
370
-1
 48
1.0
  6
BYLAYER
100
AcDbLine
 10
269.0372933999999532
 20
31.3150300000000072
 30
0.0
 11
269.0372933999999532
 21
25.5135300000000029
 31
0.0
  0
LINE
  5
1E3
100
AcDbEntity
  8
0
 62
256
370
-1
 48
1.0
  6
BYLAYER
100
AcDbLine
 10
269.0372933999999532
 20
25.5135300000000029
 30
0.0
 11
268.238293399999975
 21
25.5135300000000029
 31
0.0
  0
LINE
  5
1E4
100
AcDbEntity
  8
0
 62
256
370
-1
 48
1.0
  6
BYLAYER
100
AcDbLine
 10
268.238293399999975
 20
25.5135300000000029
 30
0.0
 11
268.238293399999975
 21
22.4142300000000034
 31
0.0
  0
LINE
  5
1E5
100
AcDbEntity
  8
0
 62
256
370
-1
 48
1.0
  6
BYLAYER
100
AcDbLine
 10
268.238293399999975
 20
22.4142300000000034
 30
0.0
 11
269.0372933999999532
 21
22.4142300000000034
 31
0.0
  0
LINE
  5
1E6
100
AcDbEntity
  8
0
 62
256
370
-1
 48
1.0
  6
BYLAYER
100
AcDbLine
 10
269.0372933999999532
 20
22.4142300000000034
 30
0.0
 11
269.0372933999999532
 21
21.4152300000000082
 31
0.0
  0
LINE
  5
1E7
100
AcDbEntity
  8
0
 62
256
370
-1
 48
1.0
  6
BYLAYER
100
AcDbLine
 10
269.0372933999999532
 20
21.4152300000000082
 30
0.0
 11
283.0382934000000432
 21
21.4152300000000082
 31
0.0
  0
LINE
  5
1E8
100
AcDbEntity
  8
0
 62
256
370
-1
 48
1.0
  6
BYLAYER
100
AcDbLine
 10
283.0382934000000432
 20
21.4152300000000082
 30
0.0
 11
283.0382934000000432
 21
22.4142300000000034
 31
0.0
  0
LINE
  5
1E9
100
AcDbEntity
  8
0
 62
256
370
-1
 48
1.0
  6
BYLAYER
100
AcDbLine
 10
283.0382934000000432
 20
22.4142300000000034
 30
0.0
 11
283.8372934000000214
 21
22.4142300000000034
 31
0.0
  0
LINE
  5
1EA
100
AcDbEntity
  8
0
 62
256
370
-1
 48
1.0
  6
BYLAYER
100
AcDbLine
 10
283.8372934000000214
 20
22.4142300000000034
 30
0.0
 11
283.8372934000000214
 21
25.5135300000000029
 31
0.0
  0
LINE
  5
1EB
100
AcDbEntity
  8
0
 62
256
370
-1
 48
1.0
  6
BYLAYER
100
AcDbLine
 10
231.4512933999999973
 20
25.5135300000000029
 30
0.0
 11
230.6522934000000191
 21
25.5135300000000029
 31
0.0
  0
LINE
  5
1EC
100
AcDbEntity
  8
0
 62
256
370
-1
 48
1.0
  6
BYLAYER
100
AcDbLine
 10
283.8372934000000214
 20
25.5135300000000029
 30
0.0
 11
283.0382934000000432
 21
25.5135300000000029
 31
0.0
  0
LINE
  5
1ED
100
AcDbEntity
  8
0
 62
256
370
-1
 48
1.0
  6
BYLAYER
100
AcDbLine
 10
230.6522934000000191
 20
25.5135300000000029
 30
0.0
 11
230.6522934000000191
 21
31.3150300000000072
 31
0.0
  0
LINE
  5
1EE
100
AcDbEntity
  8
0
 62
256
370
-1
 48
1.0
  6
BYLAYER
100
AcDbLine
 10
283.0382934000000432
 20
25.5135300000000029
 30
0.0
 11
283.0382934000000432
 21
31.3150300000000072
 31
0.0
  0
LINE
  5
1EF
100
AcDbEntity
  8
0
 62
256
370
-1
 48
1.0
  6
BYLAYER
100
AcDbLine
 10
230.6522934000000191
 20
31.3150300000000072
 30
0.0
 11
231.4512933999999973
 21
31.3150300000000072
 31
0.0
  0
LINE
  5
1F0
100
AcDbEntity
  8
0
 62
256
370
-1
 48
1.0
  6
BYLAYER
100
AcDbLine
 10
283.0382934000000432
 20
31.3150300000000072
 30
0.0
 11
283.8372934000000214
 21
31.3150300000000072
 31
0.0
  0
LINE
  5
1F1
100
AcDbEntity
  8
0
 62
256
370
-1
 48
1.0
  6
BYLAYER
100
AcDbLine
 10
231.4512933999999973
 20
31.3150300000000072
 30
0.0
 11
231.4512933999999973
 21
34.4142300000000034
 31
0.0
  0
LINE
  5
1F2
100
AcDbEntity
  8
0
 62
256
370
-1
 48
1.0
  6
BYLAYER
100
AcDbLine
 10
283.8372934000000214
 20
31.3150300000000072
 30
0.0
 11
283.8372934000000214
 21
34.4142300000000034
 31
0.0
  0
LINE
  5
1F3
100
AcDbEntity
  8
0
 62
256
370
-1
 48
1.0
  6
BYLAYER
100
AcDbLine
 10
283.8372934000000214
 20
34.4142300000000034
 30
0.0
 11
283.0382934000000432
 21
34.4142300000000034
 31
0.0
  0
LINE
  5
1F4
100
AcDbEntity
  8
0
 62
256
370
-1
 48
1.0
  6
BYLAYER
100
AcDbLine
 10
283.0382934000000432
 20
34.4142300000000034
 30
0.0
 11
283.0382934000000432
 21
35.4146300000000025
 31
0.0
  0
LINE
  5
1F5
100
AcDbEntity
  8
0
 62
256
370
-1
 48
1.0
  6
BYLAYER
100
AcDbLine
 10
230.6522934000000191
 20
35.4146300000000167
 30
0.0
 11
216.6512934000000143
 21
35.4146300000000167
 31
0.0
  0
LINE
  5
1F6
100
AcDbEntity
  8
0
 62
256
370
-1
 48
1.0
  6
BYLAYER
100
AcDbLine
 10
283.0382934000000432
 20
35.4146300000000025
 30
0.0
 11
269.0372933999999532
 21
35.4146300000000025
 31
0.0
  0
LINE
  5
1F7
100
AcDbEntity
  8
0
 62
256
370
-1
 48
1.0
  6
BYLAYER
100
AcDbLine
 10
257.1312934000000041
 20
54.46323000000001
 30
0.0
 11
257.1312934000000041
 21
53.4641300000000115
 31
0.0
  0
LINE
  5
1F8
100
AcDbEntity
  8
0
 62
256
370
-1
 48
1.0
  6
BYLAYER
100
AcDbLine
 10
257.1312934000000041
 20
53.4641300000000115
 30
0.0
 11
256.3312934000000496
 21
53.4641300000000115
 31
0.0
  0
LINE
  5
1F9
100
AcDbEntity
  8
0
 62
256
370
-1
 48
1.0
  6
BYLAYER
100
AcDbLine
 10
256.3312934000000496
 20
53.4641300000000115
 30
0.0
 11
256.3312934000000496
 21
50.3650300000000044
 31
0.0
  0
LINE
  5
1FA
100
AcDbEntity
  8
0
 62
256
370
-1
 48
1.0
  6
BYLAYER
100
AcDbLine
 10
256.3312934000000496
 20
50.3650300000000044
 30
0.0
 11
257.1312934000000041
 21
50.3650300000000044
 31
0.0
  0
LINE
  5
1FB
100
AcDbEntity
  8
0
 62
256
370
-1
 48
1.0
  6
BYLAYER
100
AcDbLine
 10
257.1312934000000041
 20
50.3650300000000044
 30
0.0
 11
257.1312934000000041
 21
49.7642299999999977
 31
0.0
  0
LINE
  5
1FC
100
AcDbEntity
  8
0
 62
256
370
-1
 48
1.0
  6
BYLAYER
100
AcDbLine
 10
257.1312934000000041
 20
49.7642299999999977
 30
0.0
 11
255.5562934000000155
 21
49.7642299999999977
 31
0.0
  0
LINE
  5
1FD
100
AcDbEntity
  8
0
 62
256
370
-1
 48
1.0
  6
BYLAYER
100
AcDbLine
 10
255.5562934000000155
 20
49.7642299999999977
 30
0.0
 11
255.5562934000000155
 21
52.9942300000000017
 31
0.0
  0
LINE
  5
1FE
100
AcDbEntity
  8
0
 62
256
370
-1
 48
1.0
  6
BYLAYER
100
AcDbLine
 10
255.5562934000000155
 20
52.9942300000000017
 30
0.0
 11
248.9082934000000193
 21
52.9942300000000017
 31
0.0
  0
LINE
  5
1FF
100
AcDbEntity
  8
0
 62
256
370
-1
 48
1.0
  6
BYLAYER
100
AcDbLine
 10
248.9082934000000193
 20
52.9942300000000017
 30
0.0
 11
248.9082934000000193
 21
49.7642299999999977
 31
0.0
  0
LINE
  5
200
100
AcDbEntity
  8
0
 62
256
370
-1
 48
1.0
  6
BYLAYER
100
AcDbLine
 10
248.9082934000000193
 20
49.7642299999999977
 30
0.0
 11
248.0332934000000193
 21
49.7642299999999977
 31
0.0
  0
LINE
  5
201
100
AcDbEntity
  8
0
 62
256
370
-1
 48
1.0
  6
BYLAYER
100
AcDbLine
 10
248.0332934000000193
 20
49.7642299999999977
 30
0.0
 11
248.0332934000000193
 21
46.9639300000000048
 31
0.0
  0
LINE
  5
202
100
AcDbEntity
  8
0
 62
256
370
-1
 48
1.0
  6
BYLAYER
100
AcDbLine
 10
248.0332934000000193
 20
46.9639300000000048
 30
0.0
 11
248.9082934000000193
 21
46.9639300000000048
 31
0.0
  0
LINE
  5
203
100
AcDbEntity
  8
0
 62
256
370
-1
 48
1.0
  6
BYLAYER
100
AcDbLine
 10
248.9082934000000193
 20
46.9639300000000048
 30
0.0
 11
248.9082934000000193
 21
40.6954300000000018
 31
0.0
  0
LINE
  5
204
100
AcDbEntity
  8
0
 62
256
370
-1
 48
1.0
  6
BYLAYER
100
AcDbLine
 10
248.9082934000000193
 20
40.6954300000000018
 30
0.0
 11
250.5812934000000212
 21
40.6954300000000018
 31
0.0
  0
LINE
  5
205
100
AcDbEntity
  8
0
 62
256
370
-1
 48
1.0
  6
BYLAYER
100
AcDbLine
 10
250.5812934000000212
 20
40.6954300000000018
 30
0.0
 11
250.5812934000000212
 21
39.4938300000000027
 31
0.0
  0
LINE
  5
206
100
AcDbEntity
  8
0
 62
256
370
-1
 48
1.0
  6
BYLAYER
100
AcDbLine
 10
250.5812934000000212
 20
39.4938300000000027
 30
0.0
 11
253.8802933999999993
 21
39.4938300000000027
 31
0.0
  0
LINE
  5
207
100
AcDbEntity
  8
0
 62
256
370
-1
 48
1.0
  6
BYLAYER
100
AcDbLine
 10
253.8802933999999993
 20
39.4938300000000027
 30
0.0
 11
253.8802933999999993
 21
40.6954300000000018
 31
0.0
  0
LINE
  5
208
100
AcDbEntity
  8
0
 62
256
370
-1
 48
1.0
  6
BYLAYER
100
AcDbLine
 10
253.8802933999999993
 20
40.6954300000000018
 30
0.0
 11
255.5562934000000155
 21
40.6954300000000018
 31
0.0
  0
LINE
  5
209
100
AcDbEntity
  8
0
 62
256
370
-1
 48
1.0
  6
BYLAYER
100
AcDbLine
 10
255.5562934000000155
 20
40.6954300000000018
 30
0.0
 11
255.5562934000000155
 21
45.1643300000000067
 31
0.0
  0
LINE
  5
20A
100
AcDbEntity
  8
0
 62
256
370
-1
 48
1.0
  6
BYLAYER
100
AcDbLine
 10
255.5562934000000155
 20
45.1643300000000067
 30
0.0
 11
257.1312934000000041
 21
45.1643300000000067
 31
0.0
  0
LINE
  5
20B
100
AcDbEntity
  8
0
 62
256
370
-1
 48
1.0
  6
BYLAYER
100
AcDbLine
 10
257.1312934000000041
 20
45.1643300000000067
 30
0.0
 11
257.1312934000000041
 21
44.5636300000000034
 31
0.0
  0
LINE
  5
20C
100
AcDbEntity
  8
0
 62
256
370
-1
 48
1.0
  6
BYLAYER
100
AcDbLine
 10
257.1312934000000041
 20
44.5636300000000034
 30
0.0
 11
256.3312934000000496
 21
44.5636300000000034
 31
0.0
  0
LINE
  5
20D
100
AcDbEntity
  8
0
 62
256
370
-1
 48
1.0
  6
BYLAYER
100
AcDbLine
 10
256.3312934000000496
 20
44.5636300000000034
 30
0.0
 11
256.3312934000000496
 21
41.464429999999993
 31
0.0
  0
LINE
  5
20E
100
AcDbEntity
  8
0
 62
256
370
-1
 48
1.0
  6
BYLAYER
100
AcDbLine
 10
256.3312934000000496
 20
41.464429999999993
 30
0.0
 11
257.1312934000000041
 21
41.464429999999993
 31
0.0
  0
LINE
  5
20F
100
AcDbEntity
  8
0
 62
256
370
-1
 48
1.0
  6
BYLAYER
100
AcDbLine
 10
257.1312934000000041
 20
41.464429999999993
 30
0.0
 11
257.1312934000000041
 21
40.4639300000000048
 31
0.0
  0
LINE
  5
210
100
AcDbEntity
  8
0
 62
256
370
-1
 48
1.0
  6
BYLAYER
100
AcDbLine
 10
257.1312934000000041
 20
40.4639300000000048
 30
0.0
 11
271.1312934000000041
 21
40.4639300000000048
 31
0.0
  0
LINE
  5
211
100
AcDbEntity
  8
0
 62
256
370
-1
 48
1.0
  6
BYLAYER
100
AcDbLine
 10
271.1312934000000041
 20
40.4639300000000048
 30
0.0
 11
271.1312934000000041
 21
41.464429999999993
 31
0.0
  0
LINE
  5
212
100
AcDbEntity
  8
0
 62
256
370
-1
 48
1.0
  6
BYLAYER
100
AcDbLine
 10
271.1312934000000041
 20
41.464429999999993
 30
0.0
 11
271.9312933999999586
 21
41.464429999999993
 31
0.0
  0
LINE
  5
213
100
AcDbEntity
  8
0
 62
256
370
-1
 48
1.0
  6
BYLAYER
100
AcDbLine
 10
271.9312933999999586
 20
41.464429999999993
 30
0.0
 11
271.9312933999999586
 21
44.5636300000000034
 31
0.0
  0
LINE
  5
214
100
AcDbEntity
  8
0
 62
256
370
-1
 48
1.0
  6
BYLAYER
100
AcDbLine
 10
271.9312933999999586
 20
44.5636300000000034
 30
0.0
 11
271.1312934000000041
 21
44.5636300000000034
 31
0.0
  0
LINE
  5
215
100
AcDbEntity
  8
0
 62
256
370
-1
 48
1.0
  6
BYLAYER
100
AcDbLine
 10
271.1312934000000041
 20
44.5636300000000034
 30
0.0
 11
271.1312934000000041
 21
45.1643300000000067
 31
0.0
  0
LINE
  5
216
100
AcDbEntity
  8
0
 62
256
370
-1
 48
1.0
  6
BYLAYER
100
AcDbLine
 10
271.1312934000000041
 20
45.1643300000000067
 30
0.0
 11
272.7072934000000259
 21
45.1643300000000067
 31
0.0
  0
LINE
  5
217
100
AcDbEntity
  8
0
 62
256
370
-1
 48
1.0
  6
BYLAYER
100
AcDbLine
 10
272.7072934000000259
 20
45.1643300000000067
 30
0.0
 11
272.7072934000000259
 21
40.6954300000000018
 31
0.0
  0
LINE
  5
218
100
AcDbEntity
  8
0
 62
256
370
-1
 48
1.0
  6
BYLAYER
100
AcDbLine
 10
272.7072934000000259
 20
40.6954300000000018
 30
0.0
 11
274.3812934000000041
 21
40.6954300000000018
 31
0.0
  0
LINE
  5
219
100
AcDbEntity
  8
0
 62
256
370
-1
 48
1.0
  6
BYLAYER
100
AcDbLine
 10
274.3812934000000041
 20
40.6954300000000018
 30
0.0
 11
274.3812934000000041
 21
39.4938300000000027
 31
0.0
  0
LINE
  5
21A
100
AcDbEntity
  8
0
 62
256
370
-1
 48
1.0
  6
BYLAYER
100
AcDbLine
 10
274.3812934000000041
 20
39.4938300000000027
 30
0.0
 11
277.6812933999999586
 21
39.4938300000000027
 31
0.0
  0
LINE
  5
21B
100
AcDbEntity
  8
0
 62
256
370
-1
 48
1.0
  6
BYLAYER
100
AcDbLine
 10
277.6812933999999586
 20
39.4938300000000027
 30
0.0
 11
277.6812933999999586
 21
40.6954300000000018
 31
0.0
  0
LINE
  5
21C
100
AcDbEntity
  8
0
 62
256
370
-1
 48
1.0
  6
BYLAYER
100
AcDbLine
 10
277.6812933999999586
 20
40.6954300000000018
 30
0.0
 11
279.3562934000000268
 21
40.6954300000000018
 31
0.0
  0
LINE
  5
21D
100
AcDbEntity
  8
0
 62
256
370
-1
 48
1.0
  6
BYLAYER
100
AcDbLine
 10
279.3562934000000268
 20
40.6954300000000018
 30
0.0
 11
279.3562934000000268
 21
46.9639300000000048
 31
0.0
  0
LINE
  5
21E
100
AcDbEntity
  8
0
 62
256
370
-1
 48
1.0
  6
BYLAYER
100
AcDbLine
 10
279.3562934000000268
 20
46.9639300000000048
 30
0.0
 11
280.2312934000000268
 21
46.9639300000000048
 31
0.0
  0
LINE
  5
21F
100
AcDbEntity
  8
0
 62
256
370
-1
 48
1.0
  6
BYLAYER
100
AcDbLine
 10
280.2312934000000268
 20
46.9639300000000048
 30
0.0
 11
280.2312934000000268
 21
49.7642299999999977
 31
0.0
  0
LINE
  5
220
100
AcDbEntity
  8
0
 62
256
370
-1
 48
1.0
  6
BYLAYER
100
AcDbLine
 10
280.2312934000000268
 20
49.7642299999999977
 30
0.0
 11
279.3562934000000268
 21
49.7642299999999977
 31
0.0
  0
LINE
  5
221
100
AcDbEntity
  8
0
 62
256
370
-1
 48
1.0
  6
BYLAYER
100
AcDbLine
 10
279.3562934000000268
 20
49.7642299999999977
 30
0.0
 11
279.3562934000000268
 21
52.9942300000000017
 31
0.0
  0
LINE
  5
222
100
AcDbEntity
  8
0
 62
256
370
-1
 48
1.0
  6
BYLAYER
100
AcDbLine
 10
279.3562934000000268
 20
52.9942300000000017
 30
0.0
 11
272.7072934000000259
 21
52.9942300000000017
 31
0.0
  0
LINE
  5
223
100
AcDbEntity
  8
0
 62
256
370
-1
 48
1.0
  6
BYLAYER
100
AcDbLine
 10
272.7072934000000259
 20
52.9942300000000017
 30
0.0
 11
272.7072934000000259
 21
49.7642299999999977
 31
0.0
  0
LINE
  5
224
100
AcDbEntity
  8
0
 62
256
370
-1
 48
1.0
  6
BYLAYER
100
AcDbLine
 10
272.7072934000000259
 20
49.7642299999999977
 30
0.0
 11
271.1312934000000041
 21
49.7642299999999977
 31
0.0
  0
LINE
  5
225
100
AcDbEntity
  8
0
 62
256
370
-1
 48
1.0
  6
BYLAYER
100
AcDbLine
 10
271.1312934000000041
 20
49.7642299999999977
 30
0.0
 11
271.1312934000000041
 21
50.3650300000000044
 31
0.0
  0
LINE
  5
226
100
AcDbEntity
  8
0
 62
256
370
-1
 48
1.0
  6
BYLAYER
100
AcDbLine
 10
271.1312934000000041
 20
50.3650300000000044
 30
0.0
 11
271.9312933999999586
 21
50.3650300000000044
 31
0.0
  0
LINE
  5
227
100
AcDbEntity
  8
0
 62
256
370
-1
 48
1.0
  6
BYLAYER
100
AcDbLine
 10
271.9312933999999586
 20
50.3650300000000044
 30
0.0
 11
271.9312933999999586
 21
53.4641300000000115
 31
0.0
  0
LINE
  5
228
100
AcDbEntity
  8
0
 62
256
370
-1
 48
1.0
  6
BYLAYER
100
AcDbLine
 10
271.9312933999999586
 20
53.4641300000000115
 30
0.0
 11
271.1312934000000041
 21
53.4641300000000115
 31
0.0
  0
LINE
  5
229
100
AcDbEntity
  8
0
 62
256
370
-1
 48
1.0
  6
BYLAYER
100
AcDbLine
 10
271.1312934000000041
 20
53.4641300000000115
 30
0.0
 11
271.1312934000000041
 21
54.46323000000001
 31
0.0
  0
LINE
  5
22A
100
AcDbEntity
  8
0
 62
256
370
-1
 48
1.0
  6
BYLAYER
100
AcDbLine
 10
271.1312934000000041
 20
54.46323000000001
 30
0.0
 11
257.1312934000000041
 21
54.46323000000001
 31
0.0
  0
LINE
  5
22B
100
AcDbEntity
  8
0
 62
256
370
-1
 48
1.0
  6
BYLAYER
100
AcDbLine
 10
4.7197734000000366
 20
54.46323000000001
 30
0.0
 11
4.7197734000000366
 21
53.4641300000000115
 31
0.0
  0
LINE
  5
22C
100
AcDbEntity
  8
0
 62
256
370
-1
 48
1.0
  6
BYLAYER
100
AcDbLine
 10
35.6761934000000167
 20
54.46323000000001
 30
0.0
 11
35.6761934000000167
 21
53.4641300000000115
 31
0.0
  0
LINE
  5
22D
100
AcDbEntity
  8
0
 62
256
370
-1
 48
1.0
  6
BYLAYER
100
AcDbLine
 10
4.7197734000000366
 20
53.4641300000000115
 30
0.0
 11
3.9191434000000243
 21
53.4641300000000115
 31
0.0
  0
LINE
  5
22E
100
AcDbEntity
  8
0
 62
256
370
-1
 48
1.0
  6
BYLAYER
100
AcDbLine
 10
35.6761934000000167
 20
53.4641300000000115
 30
0.0
 11
34.876793400000011
 21
53.4641300000000115
 31
0.0
  0
LINE
  5
22F
100
AcDbEntity
  8
0
 62
256
370
-1
 48
1.0
  6
BYLAYER
100
AcDbLine
 10
3.9191434000000243
 20
53.4641300000000115
 30
0.0
 11
3.9191434000000243
 21
50.3650300000000186
 31
0.0
  0
LINE
  5
230
100
AcDbEntity
  8
0
 62
256
370
-1
 48
1.0
  6
BYLAYER
100
AcDbLine
 10
34.876793400000011
 20
53.4641300000000115
 30
0.0
 11
34.876793400000011
 21
50.3650300000000044
 31
0.0
  0
LINE
  5
231
100
AcDbEntity
  8
0
 62
256
370
-1
 48
1.0
  6
BYLAYER
100
AcDbLine
 10
3.9191434000000243
 20
50.3650300000000186
 30
0.0
 11
4.7197734000000366
 21
50.3650300000000186
 31
0.0
  0
LINE
  5
232
100
AcDbEntity
  8
0
 62
256
370
-1
 48
1.0
  6
BYLAYER
100
AcDbLine
 10
34.876793400000011
 20
50.3650300000000044
 30
0.0
 11
35.6761934000000167
 21
50.3650300000000044
 31
0.0
  0
LINE
  5
233
100
AcDbEntity
  8
0
 62
256
370
-1
 48
1.0
  6
BYLAYER
100
AcDbLine
 10
4.7197734000000366
 20
50.3650300000000186
 30
0.0
 11
4.7197734000000366
 21
44.5636300000000176
 31
0.0
  0
LINE
  5
234
100
AcDbEntity
  8
0
 62
256
370
-1
 48
1.0
  6
BYLAYER
100
AcDbLine
 10
35.6761934000000167
 20
50.3650300000000044
 30
0.0
 11
35.6761934000000167
 21
44.5636300000000034
 31
0.0
  0
LINE
  5
235
100
AcDbEntity
  8
0
 62
256
370
-1
 48
1.0
  6
BYLAYER
100
AcDbLine
 10
4.7197734000000366
 20
44.5636300000000176
 30
0.0
 11
3.9191434000000243
 21
44.5636300000000176
 31
0.0
  0
LINE
  5
236
100
AcDbEntity
  8
0
 62
256
370
-1
 48
1.0
  6
BYLAYER
100
AcDbLine
 10
35.6761934000000167
 20
44.5636300000000034
 30
0.0
 11
34.876793400000011
 21
44.5636300000000034
 31
0.0
  0
LINE
  5
237
100
AcDbEntity
  8
0
 62
256
370
-1
 48
1.0
  6
BYLAYER
100
AcDbLine
 10
3.9191434000000243
 20
44.5636300000000176
 30
0.0
 11
3.9191434000000243
 21
41.4644300000000072
 31
0.0
  0
LINE
  5
238
100
AcDbEntity
  8
0
 62
256
370
-1
 48
1.0
  6
BYLAYER
100
AcDbLine
 10
34.876793400000011
 20
44.5636300000000034
 30
0.0
 11
34.876793400000011
 21
41.464429999999993
 31
0.0
  0
LINE
  5
239
100
AcDbEntity
  8
0
 62
256
370
-1
 48
1.0
  6
BYLAYER
100
AcDbLine
 10
3.9191434000000243
 20
41.4644300000000072
 30
0.0
 11
4.7197734000000366
 21
41.4644300000000072
 31
0.0
  0
LINE
  5
23A
100
AcDbEntity
  8
0
 62
256
370
-1
 48
1.0
  6
BYLAYER
100
AcDbLine
 10
34.876793400000011
 20
41.464429999999993
 30
0.0
 11
35.6761934000000167
 21
41.464429999999993
 31
0.0
  0
LINE
  5
23B
100
AcDbEntity
  8
0
 62
256
370
-1
 48
1.0
  6
BYLAYER
100
AcDbLine
 10
35.6761934000000167
 20
41.464429999999993
 30
0.0
 11
35.6761934000000167
 21
40.4639300000000048
 31
0.0
  0
LINE
  5
23C
100
AcDbEntity
  8
0
 62
256
370
-1
 48
1.0
  6
BYLAYER
100
AcDbLine
 10
35.6761934000000167
 20
40.4639300000000048
 30
0.0
 11
49.6768934000000115
 21
40.4639300000000048
 31
0.0
  0
LINE
  5
23D
100
AcDbEntity
  8
0
 62
256
370
-1
 48
1.0
  6
BYLAYER
100
AcDbLine
 10
49.6768934000000115
 20
40.4639300000000048
 30
0.0
 11
49.6768934000000115
 21
41.464429999999993
 31
0.0
  0
LINE
  5
23E
100
AcDbEntity
  8
0
 62
256
370
-1
 48
1.0
  6
BYLAYER
100
AcDbLine
 10
49.6768934000000115
 20
41.464429999999993
 30
0.0
 11
50.4748934000000133
 21
41.464429999999993
 31
0.0
  0
LINE
  5
23F
100
AcDbEntity
  8
0
 62
256
370
-1
 48
1.0
  6
BYLAYER
100
AcDbLine
 10
50.4748934000000133
 20
41.464429999999993
 30
0.0
 11
50.4748934000000133
 21
44.5636300000000034
 31
0.0
  0
LINE
  5
240
100
AcDbEntity
  8
0
 62
256
370
-1
 48
1.0
  6
BYLAYER
100
AcDbLine
 10
50.4748934000000133
 20
44.5636300000000034
 30
0.0
 11
49.6768934000000115
 21
44.5636300000000034
 31
0.0
  0
LINE
  5
241
100
AcDbEntity
  8
0
 62
256
370
-1
 48
1.0
  6
BYLAYER
100
AcDbLine
 10
49.6768934000000115
 20
44.5636300000000034
 30
0.0
 11
49.6768934000000115
 21
50.3650300000000044
 31
0.0
  0
LINE
  5
242
100
AcDbEntity
  8
0
 62
256
370
-1
 48
1.0
  6
BYLAYER
100
AcDbLine
 10
49.6768934000000115
 20
50.3650300000000044
 30
0.0
 11
50.4748934000000133
 21
50.3650300000000044
 31
0.0
  0
LINE
  5
243
100
AcDbEntity
  8
0
 62
256
370
-1
 48
1.0
  6
BYLAYER
100
AcDbLine
 10
50.4748934000000133
 20
50.3650300000000044
 30
0.0
 11
50.4748934000000133
 21
53.4641300000000115
 31
0.0
  0
LINE
  5
244
100
AcDbEntity
  8
0
 62
256
370
-1
 48
1.0
  6
BYLAYER
100
AcDbLine
 10
50.4748934000000133
 20
53.4641300000000115
 30
0.0
 11
49.6768934000000115
 21
53.4641300000000115
 31
0.0
  0
LINE
  5
245
100
AcDbEntity
  8
0
 62
256
370
-1
 48
1.0
  6
BYLAYER
100
AcDbLine
 10
49.6768934000000115
 20
53.4641300000000115
 30
0.0
 11
49.6768934000000115
 21
54.46323000000001
 31
0.0
  0
LINE
  5
246
100
AcDbEntity
  8
0
 62
256
370
-1
 48
1.0
  6
BYLAYER
100
AcDbLine
 10
49.6768934000000115
 20
54.46323000000001
 30
0.0
 11
35.6761934000000167
 21
54.46323000000001
 31
0.0
  0
LINE
  5
247
100
AcDbEntity
  8
0
 62
256
370
-1
 48
1.0
  6
BYLAYER
100
AcDbLine
 10
54.72479340000001
 20
54.46323000000001
 30
0.0
 11
54.72479340000001
 21
53.4641300000000115
 31
0.0
  0
LINE
  5
248
100
AcDbEntity
  8
0
 62
256
370
-1
 48
1.0
  6
BYLAYER
100
AcDbLine
 10
54.72479340000001
 20
53.4641300000000115
 30
0.0
 11
53.9267934000000082
 21
53.4641300000000115
 31
0.0
  0
LINE
  5
249
100
AcDbEntity
  8
0
 62
256
370
-1
 48
1.0
  6
BYLAYER
100
AcDbLine
 10
53.9267934000000082
 20
53.4641300000000115
 30
0.0
 11
53.9267934000000082
 21
50.3650300000000044
 31
0.0
  0
LINE
  5
24A
100
AcDbEntity
  8
0
 62
256
370
-1
 48
1.0
  6
BYLAYER
100
AcDbLine
 10
53.9267934000000082
 20
50.3650300000000044
 30
0.0
 11
54.72479340000001
 21
50.3650300000000044
 31
0.0
  0
LINE
  5
24B
100
AcDbEntity
  8
0
 62
256
370
-1
 48
1.0
  6
BYLAYER
100
AcDbLine
 10
54.72479340000001
 20
50.3650300000000044
 30
0.0
 11
54.72479340000001
 21
44.5636300000000034
 31
0.0
  0
LINE
  5
24C
100
AcDbEntity
  8
0
 62
256
370
-1
 48
1.0
  6
BYLAYER
100
AcDbLine
 10
54.72479340000001
 20
44.5636300000000034
 30
0.0
 11
53.9267934000000082
 21
44.5636300000000034
 31
0.0
  0
LINE
  5
24D
100
AcDbEntity
  8
0
 62
256
370
-1
 48
1.0
  6
BYLAYER
100
AcDbLine
 10
53.9267934000000082
 20
44.5636300000000034
 30
0.0
 11
53.9267934000000082
 21
41.464429999999993
 31
0.0
  0
LINE
  5
24E
100
AcDbEntity
  8
0
 62
256
370
-1
 48
1.0
  6
BYLAYER
100
AcDbLine
 10
53.9267934000000082
 20
41.464429999999993
 30
0.0
 11
54.72479340000001
 21
41.464429999999993
 31
0.0
  0
LINE
  5
24F
100
AcDbEntity
  8
0
 62
256
370
-1
 48
1.0
  6
BYLAYER
100
AcDbLine
 10
54.72479340000001
 20
41.464429999999993
 30
0.0
 11
54.72479340000001
 21
40.4639300000000048
 31
0.0
  0
LINE
  5
250
100
AcDbEntity
  8
0
 62
256
370
-1
 48
1.0
  6
BYLAYER
100
AcDbLine
 10
54.72479340000001
 20
40.4639300000000048
 30
0.0
 11
68.7254934000000048
 21
40.4639300000000048
 31
0.0
  0
LINE
  5
251
100
AcDbEntity
  8
0
 62
256
370
-1
 48
1.0
  6
BYLAYER
100
AcDbLine
 10
68.7254934000000048
 20
40.4639300000000048
 30
0.0
 11
68.7254934000000048
 21
41.464429999999993
 31
0.0
  0
LINE
  5
252
100
AcDbEntity
  8
0
 62
256
370
-1
 48
1.0
  6
BYLAYER
100
AcDbLine
 10
68.7254934000000048
 20
41.464429999999993
 30
0.0
 11
69.5262934000000143
 21
41.464429999999993
 31
0.0
  0
LINE
  5
253
100
AcDbEntity
  8
0
 62
256
370
-1
 48
1.0
  6
BYLAYER
100
AcDbLine
 10
69.5262934000000143
 20
41.464429999999993
 30
0.0
 11
69.5262934000000143
 21
44.5636300000000034
 31
0.0
  0
LINE
  5
254
100
AcDbEntity
  8
0
 62
256
370
-1
 48
1.0
  6
BYLAYER
100
AcDbLine
 10
69.5262934000000143
 20
44.5636300000000034
 30
0.0
 11
68.7254934000000048
 21
44.5636300000000034
 31
0.0
  0
LINE
  5
255
100
AcDbEntity
  8
0
 62
256
370
-1
 48
1.0
  6
BYLAYER
100
AcDbLine
 10
68.7254934000000048
 20
44.5636300000000034
 30
0.0
 11
68.7254934000000048
 21
50.3650300000000044
 31
0.0
  0
LINE
  5
256
100
AcDbEntity
  8
0
 62
256
370
-1
 48
1.0
  6
BYLAYER
100
AcDbLine
 10
68.7254934000000048
 20
50.3650300000000044
 30
0.0
 11
69.5262934000000143
 21
50.3650300000000044
 31
0.0
  0
LINE
  5
257
100
AcDbEntity
  8
0
 62
256
370
-1
 48
1.0
  6
BYLAYER
100
AcDbLine
 10
69.5262934000000143
 20
50.3650300000000044
 30
0.0
 11
69.5262934000000143
 21
53.4641300000000115
 31
0.0
  0
LINE
  5
258
100
AcDbEntity
  8
0
 62
256
370
-1
 48
1.0
  6
BYLAYER
100
AcDbLine
 10
69.5262934000000143
 20
53.4641300000000115
 30
0.0
 11
68.7254934000000048
 21
53.4641300000000115
 31
0.0
  0
LINE
  5
259
100
AcDbEntity
  8
0
 62
256
370
-1
 48
1.0
  6
BYLAYER
100
AcDbLine
 10
68.7254934000000048
 20
53.4641300000000115
 30
0.0
 11
68.7254934000000048
 21
54.46323000000001
 31
0.0
  0
LINE
  5
25A
100
AcDbEntity
  8
0
 62
256
370
-1
 48
1.0
  6
BYLAYER
100
AcDbLine
 10
68.7254934000000048
 20
54.46323000000001
 30
0.0
 11
54.72479340000001
 21
54.46323000000001
 31
0.0
  0
LINE
  5
25B
100
AcDbEntity
  8
0
 62
256
370
-1
 48
1.0
  6
BYLAYER
100
AcDbLine
 10
73.776193400000011
 20
54.46323000000001
 30
0.0
 11
73.776193400000011
 21
53.4641300000000115
 31
0.0
  0
LINE
  5
25C
100
AcDbEntity
  8
0
 62
256
370
-1
 48
1.0
  6
BYLAYER
100
AcDbLine
 10
73.776193400000011
 20
53.4641300000000115
 30
0.0
 11
72.9753934000000157
 21
53.4641300000000115
 31
0.0
  0
LINE
  5
25D
100
AcDbEntity
  8
0
 62
256
370
-1
 48
1.0
  6
BYLAYER
100
AcDbLine
 10
72.9753934000000157
 20
53.4641300000000115
 30
0.0
 11
72.9753934000000157
 21
50.3650300000000044
 31
0.0
  0
LINE
  5
25E
100
AcDbEntity
  8
0
 62
256
370
-1
 48
1.0
  6
BYLAYER
100
AcDbLine
 10
72.9753934000000157
 20
50.3650300000000044
 30
0.0
 11
73.776193400000011
 21
50.3650300000000044
 31
0.0
  0
LINE
  5
25F
100
AcDbEntity
  8
0
 62
256
370
-1
 48
1.0
  6
BYLAYER
100
AcDbLine
 10
73.776193400000011
 20
50.3650300000000044
 30
0.0
 11
73.776193400000011
 21
44.5636300000000034
 31
0.0
  0
LINE
  5
260
100
AcDbEntity
  8
0
 62
256
370
-1
 48
1.0
  6
BYLAYER
100
AcDbLine
 10
73.776193400000011
 20
44.5636300000000034
 30
0.0
 11
72.9753934000000157
 21
44.5636300000000034
 31
0.0
  0
LINE
  5
261
100
AcDbEntity
  8
0
 62
256
370
-1
 48
1.0
  6
BYLAYER
100
AcDbLine
 10
72.9753934000000157
 20
44.5636300000000034
 30
0.0
 11
72.9753934000000157
 21
41.464429999999993
 31
0.0
  0
LINE
  5
262
100
AcDbEntity
  8
0
 62
256
370
-1
 48
1.0
  6
BYLAYER
100
AcDbLine
 10
72.9753934000000157
 20
41.464429999999993
 30
0.0
 11
73.776193400000011
 21
41.464429999999993
 31
0.0
  0
LINE
  5
263
100
AcDbEntity
  8
0
 62
256
370
-1
 48
1.0
  6
BYLAYER
100
AcDbLine
 10
73.776193400000011
 20
41.464429999999993
 30
0.0
 11
73.776193400000011
 21
40.4639300000000048
 31
0.0
  0
LINE
  5
264
100
AcDbEntity
  8
0
 62
256
370
-1
 48
1.0
  6
BYLAYER
100
AcDbLine
 10
73.776193400000011
 20
40.4639300000000048
 30
0.0
 11
87.7754934000000162
 21
40.4639300000000048
 31
0.0
  0
LINE
  5
265
100
AcDbEntity
  8
0
 62
256
370
-1
 48
1.0
  6
BYLAYER
100
AcDbLine
 10
87.7754934000000162
 20
40.4639300000000048
 30
0.0
 11
87.7754934000000162
 21
41.464429999999993
 31
0.0
  0
LINE
  5
266
100
AcDbEntity
  8
0
 62
256
370
-1
 48
1.0
  6
BYLAYER
100
AcDbLine
 10
87.7754934000000162
 20
41.464429999999993
 30
0.0
 11
88.5762934000000115
 21
41.464429999999993
 31
0.0
  0
LINE
  5
267
100
AcDbEntity
  8
0
 62
256
370
-1
 48
1.0
  6
BYLAYER
100
AcDbLine
 10
88.5762934000000115
 20
41.464429999999993
 30
0.0
 11
88.5762934000000115
 21
44.5636300000000034
 31
0.0
  0
LINE
  5
268
100
AcDbEntity
  8
0
 62
256
370
-1
 48
1.0
  6
BYLAYER
100
AcDbLine
 10
88.5762934000000115
 20
44.5636300000000034
 30
0.0
 11
87.7754934000000162
 21
44.5636300000000034
 31
0.0
  0
LINE
  5
269
100
AcDbEntity
  8
0
 62
256
370
-1
 48
1.0
  6
BYLAYER
100
AcDbLine
 10
87.7754934000000162
 20
44.5636300000000034
 30
0.0
 11
87.7754934000000162
 21
50.3650300000000044
 31
0.0
  0
LINE
  5
26A
100
AcDbEntity
  8
0
 62
256
370
-1
 48
1.0
  6
BYLAYER
100
AcDbLine
 10
87.7754934000000162
 20
50.3650300000000044
 30
0.0
 11
88.5762934000000115
 21
50.3650300000000044
 31
0.0
  0
LINE
  5
26B
100
AcDbEntity
  8
0
 62
256
370
-1
 48
1.0
  6
BYLAYER
100
AcDbLine
 10
88.5762934000000115
 20
50.3650300000000044
 30
0.0
 11
88.5762934000000115
 21
53.4641300000000115
 31
0.0
  0
LINE
  5
26C
100
AcDbEntity
  8
0
 62
256
370
-1
 48
1.0
  6
BYLAYER
100
AcDbLine
 10
88.5762934000000115
 20
53.4641300000000115
 30
0.0
 11
87.7754934000000162
 21
53.4641300000000115
 31
0.0
  0
LINE
  5
26D
100
AcDbEntity
  8
0
 62
256
370
-1
 48
1.0
  6
BYLAYER
100
AcDbLine
 10
87.7754934000000162
 20
53.4641300000000115
 30
0.0
 11
87.7754934000000162
 21
54.46323000000001
 31
0.0
  0
LINE
  5
26E
100
AcDbEntity
  8
0
 62
256
370
-1
 48
1.0
  6
BYLAYER
100
AcDbLine
 10
87.7754934000000162
 20
54.46323000000001
 30
0.0
 11
73.776193400000011
 21
54.46323000000001
 31
0.0
  0
LINE
  5
26F
100
AcDbEntity
  8
0
 62
256
370
-1
 48
1.0
  6
BYLAYER
100
AcDbLine
 10
92.8261934000000082
 20
54.46323000000001
 30
0.0
 11
92.8261934000000082
 21
53.4641300000000115
 31
0.0
  0
LINE
  5
270
100
AcDbEntity
  8
0
 62
256
370
-1
 48
1.0
  6
BYLAYER
100
AcDbLine
 10
92.8261934000000082
 20
53.4641300000000115
 30
0.0
 11
92.0253934000000129
 21
53.4641300000000115
 31
0.0
  0
LINE
  5
271
100
AcDbEntity
  8
0
 62
256
370
-1
 48
1.0
  6
BYLAYER
100
AcDbLine
 10
92.0253934000000129
 20
53.4641300000000115
 30
0.0
 11
92.0253934000000129
 21
50.3650300000000044
 31
0.0
  0
LINE
  5
272
100
AcDbEntity
  8
0
 62
256
370
-1
 48
1.0
  6
BYLAYER
100
AcDbLine
 10
92.0253934000000129
 20
50.3650300000000044
 30
0.0
 11
92.8261934000000082
 21
50.3650300000000044
 31
0.0
  0
LINE
  5
273
100
AcDbEntity
  8
0
 62
256
370
-1
 48
1.0
  6
BYLAYER
100
AcDbLine
 10
92.8261934000000082
 20
50.3650300000000044
 30
0.0
 11
92.8261934000000082
 21
44.5636300000000034
 31
0.0
  0
LINE
  5
274
100
AcDbEntity
  8
0
 62
256
370
-1
 48
1.0
  6
BYLAYER
100
AcDbLine
 10
92.8261934000000082
 20
44.5636300000000034
 30
0.0
 11
92.0253934000000129
 21
44.5636300000000034
 31
0.0
  0
LINE
  5
275
100
AcDbEntity
  8
0
 62
256
370
-1
 48
1.0
  6
BYLAYER
100
AcDbLine
 10
92.0253934000000129
 20
44.5636300000000034
 30
0.0
 11
92.0253934000000129
 21
41.464429999999993
 31
0.0
  0
LINE
  5
276
100
AcDbEntity
  8
0
 62
256
370
-1
 48
1.0
  6
BYLAYER
100
AcDbLine
 10
92.0253934000000129
 20
41.464429999999993
 30
0.0
 11
92.8261934000000082
 21
41.464429999999993
 31
0.0
  0
LINE
  5
277
100
AcDbEntity
  8
0
 62
256
370
-1
 48
1.0
  6
BYLAYER
100
AcDbLine
 10
92.8261934000000082
 20
41.464429999999993
 30
0.0
 11
92.8261934000000082
 21
40.4639300000000048
 31
0.0
  0
LINE
  5
278
100
AcDbEntity
  8
0
 62
256
370
-1
 48
1.0
  6
BYLAYER
100
AcDbLine
 10
92.8261934000000082
 20
40.4639300000000048
 30
0.0
 11
106.8252934000000067
 21
40.4639300000000048
 31
0.0
  0
LINE
  5
279
100
AcDbEntity
  8
0
 62
256
370
-1
 48
1.0
  6
BYLAYER
100
AcDbLine
 10
106.8252934000000067
 20
40.4639300000000048
 30
0.0
 11
106.8252934000000067
 21
41.464429999999993
 31
0.0
  0
LINE
  5
27A
100
AcDbEntity
  8
0
 62
256
370
-1
 48
1.0
  6
BYLAYER
100
AcDbLine
 10
106.8252934000000067
 20
41.464429999999993
 30
0.0
 11
107.6252934000000039
 21
41.464429999999993
 31
0.0
  0
LINE
  5
27B
100
AcDbEntity
  8
0
 62
256
370
-1
 48
1.0
  6
BYLAYER
100
AcDbLine
 10
107.6252934000000039
 20
41.464429999999993
 30
0.0
 11
107.6252934000000039
 21
44.5636300000000034
 31
0.0
  0
LINE
  5
27C
100
AcDbEntity
  8
0
 62
256
370
-1
 48
1.0
  6
BYLAYER
100
AcDbLine
 10
107.6252934000000039
 20
44.5636300000000034
 30
0.0
 11
106.8252934000000067
 21
44.5636300000000034
 31
0.0
  0
LINE
  5
27D
100
AcDbEntity
  8
0
 62
256
370
-1
 48
1.0
  6
BYLAYER
100
AcDbLine
 10
106.8252934000000067
 20
44.5636300000000034
 30
0.0
 11
106.8252934000000067
 21
50.3650300000000044
 31
0.0
  0
LINE
  5
27E
100
AcDbEntity
  8
0
 62
256
370
-1
 48
1.0
  6
BYLAYER
100
AcDbLine
 10
106.8252934000000067
 20
50.3650300000000044
 30
0.0
 11
107.6252934000000039
 21
50.3650300000000044
 31
0.0
  0
LINE
  5
27F
100
AcDbEntity
  8
0
 62
256
370
-1
 48
1.0
  6
BYLAYER
100
AcDbLine
 10
107.6252934000000039
 20
50.3650300000000044
 30
0.0
 11
107.6252934000000039
 21
53.4641300000000115
 31
0.0
  0
LINE
  5
280
100
AcDbEntity
  8
0
 62
256
370
-1
 48
1.0
  6
BYLAYER
100
AcDbLine
 10
107.6252934000000039
 20
53.4641300000000115
 30
0.0
 11
106.8252934000000067
 21
53.4641300000000115
 31
0.0
  0
LINE
  5
281
100
AcDbEntity
  8
0
 62
256
370
-1
 48
1.0
  6
BYLAYER
100
AcDbLine
 10
106.8252934000000067
 20
53.4641300000000115
 30
0.0
 11
106.8252934000000067
 21
54.46323000000001
 31
0.0
  0
LINE
  5
282
100
AcDbEntity
  8
0
 62
256
370
-1
 48
1.0
  6
BYLAYER
100
AcDbLine
 10
106.8252934000000067
 20
54.46323000000001
 30
0.0
 11
92.8261934000000082
 21
54.46323000000001
 31
0.0
  0
LINE
  5
283
100
AcDbEntity
  8
0
 62
256
370
-1
 48
1.0
  6
BYLAYER
100
AcDbLine
 10
111.8742934000000133
 20
54.46323000000001
 30
0.0
 11
111.8742934000000133
 21
53.4641300000000115
 31
0.0
  0
LINE
  5
284
100
AcDbEntity
  8
0
 62
256
370
-1
 48
1.0
  6
BYLAYER
100
AcDbLine
 10
111.8742934000000133
 20
53.4641300000000115
 30
0.0
 11
111.0752934000000067
 21
53.4641300000000115
 31
0.0
  0
LINE
  5
285
100
AcDbEntity
  8
0
 62
256
370
-1
 48
1.0
  6
BYLAYER
100
AcDbLine
 10
111.0752934000000067
 20
53.4641300000000115
 30
0.0
 11
111.0752934000000067
 21
50.3650300000000044
 31
0.0
  0
LINE
  5
286
100
AcDbEntity
  8
0
 62
256
370
-1
 48
1.0
  6
BYLAYER
100
AcDbLine
 10
111.0752934000000067
 20
50.3650300000000044
 30
0.0
 11
111.8742934000000133
 21
50.3650300000000044
 31
0.0
  0
LINE
  5
287
100
AcDbEntity
  8
0
 62
256
370
-1
 48
1.0
  6
BYLAYER
100
AcDbLine
 10
111.8742934000000133
 20
50.3650300000000044
 30
0.0
 11
111.8742934000000133
 21
44.5636300000000034
 31
0.0
  0
LINE
  5
288
100
AcDbEntity
  8
0
 62
256
370
-1
 48
1.0
  6
BYLAYER
100
AcDbLine
 10
111.8742934000000133
 20
44.5636300000000034
 30
0.0
 11
111.0752934000000067
 21
44.5636300000000034
 31
0.0
  0
LINE
  5
289
100
AcDbEntity
  8
0
 62
256
370
-1
 48
1.0
  6
BYLAYER
100
AcDbLine
 10
111.0752934000000067
 20
44.5636300000000034
 30
0.0
 11
111.0752934000000067
 21
41.464429999999993
 31
0.0
  0
LINE
  5
28A
100
AcDbEntity
  8
0
 62
256
370
-1
 48
1.0
  6
BYLAYER
100
AcDbLine
 10
111.0752934000000067
 20
41.464429999999993
 30
0.0
 11
111.8742934000000133
 21
41.464429999999993
 31
0.0
  0
LINE
  5
28B
100
AcDbEntity
  8
0
 62
256
370
-1
 48
1.0
  6
BYLAYER
100
AcDbLine
 10
111.8742934000000133
 20
41.464429999999993
 30
0.0
 11
111.8742934000000133
 21
40.4639300000000048
 31
0.0
  0
LINE
  5
28C
100
AcDbEntity
  8
0
 62
256
370
-1
 48
1.0
  6
BYLAYER
100
AcDbLine
 10
111.8742934000000133
 20
40.4639300000000048
 30
0.0
 11
125.8772934000000134
 21
40.4639300000000048
 31
0.0
  0
LINE
  5
28D
100
AcDbEntity
  8
0
 62
256
370
-1
 48
1.0
  6
BYLAYER
100
AcDbLine
 10
125.8772934000000134
 20
40.4639300000000048
 30
0.0
 11
125.8772934000000134
 21
41.464429999999993
 31
0.0
  0
LINE
  5
28E
100
AcDbEntity
  8
0
 62
256
370
-1
 48
1.0
  6
BYLAYER
100
AcDbLine
 10
125.8772934000000134
 20
41.464429999999993
 30
0.0
 11
126.6762934000000058
 21
41.464429999999993
 31
0.0
  0
LINE
  5
28F
100
AcDbEntity
  8
0
 62
256
370
-1
 48
1.0
  6
BYLAYER
100
AcDbLine
 10
126.6762934000000058
 20
41.464429999999993
 30
0.0
 11
126.6762934000000058
 21
44.5636300000000034
 31
0.0
  0
LINE
  5
290
100
AcDbEntity
  8
0
 62
256
370
-1
 48
1.0
  6
BYLAYER
100
AcDbLine
 10
126.6762934000000058
 20
44.5636300000000034
 30
0.0
 11
125.8772934000000134
 21
44.5636300000000034
 31
0.0
  0
LINE
  5
291
100
AcDbEntity
  8
0
 62
256
370
-1
 48
1.0
  6
BYLAYER
100
AcDbLine
 10
125.8772934000000134
 20
50.3650300000000044
 30
0.0
 11
126.6762934000000058
 21
50.3650300000000044
 31
0.0
  0
LINE
  5
292
100
AcDbEntity
  8
0
 62
256
370
-1
 48
1.0
  6
BYLAYER
100
AcDbLine
 10
126.6762934000000058
 20
50.3650300000000044
 30
0.0
 11
126.6762934000000058
 21
53.4641300000000115
 31
0.0
  0
LINE
  5
293
100
AcDbEntity
  8
0
 62
256
370
-1
 48
1.0
  6
BYLAYER
100
AcDbLine
 10
126.6762934000000058
 20
53.4641300000000115
 30
0.0
 11
125.8772934000000134
 21
53.4641300000000115
 31
0.0
  0
LINE
  5
294
100
AcDbEntity
  8
0
 62
256
370
-1
 48
1.0
  6
BYLAYER
100
AcDbLine
 10
125.8772934000000134
 20
53.4641300000000115
 30
0.0
 11
125.8772934000000134
 21
54.46323000000001
 31
0.0
  0
LINE
  5
295
100
AcDbEntity
  8
0
 62
256
370
-1
 48
1.0
  6
BYLAYER
100
AcDbLine
 10
125.8772934000000134
 20
54.46323000000001
 30
0.0
 11
111.8742934000000133
 21
54.46323000000001
 31
0.0
  0
LINE
  5
296
100
AcDbEntity
  8
0
 62
256
370
-1
 48
1.0
  6
BYLAYER
100
AcDbLine
 10
130.92629340000002
 20
54.46323000000001
 30
0.0
 11
130.92629340000002
 21
53.4641300000000115
 31
0.0
  0
LINE
  5
297
100
AcDbEntity
  8
0
 62
256
370
-1
 48
1.0
  6
BYLAYER
100
AcDbLine
 10
130.92629340000002
 20
53.4641300000000115
 30
0.0
 11
130.1242933999999991
 21
53.4641300000000115
 31
0.0
  0
LINE
  5
298
100
AcDbEntity
  8
0
 62
256
370
-1
 48
1.0
  6
BYLAYER
100
AcDbLine
 10
130.1242933999999991
 20
53.4641300000000115
 30
0.0
 11
130.1242933999999991
 21
50.3650300000000044
 31
0.0
  0
LINE
  5
299
100
AcDbEntity
  8
0
 62
256
370
-1
 48
1.0
  6
BYLAYER
100
AcDbLine
 10
130.1242933999999991
 20
50.3650300000000044
 30
0.0
 11
130.92629340000002
 21
50.3650300000000044
 31
0.0
  0
LINE
  5
29A
100
AcDbEntity
  8
0
 62
256
370
-1
 48
1.0
  6
BYLAYER
100
AcDbLine
 10
130.92629340000002
 20
44.5636300000000034
 30
0.0
 11
130.1242933999999991
 21
44.5636300000000034
 31
0.0
  0
LINE
  5
29B
100
AcDbEntity
  8
0
 62
256
370
-1
 48
1.0
  6
BYLAYER
100
AcDbLine
 10
130.1242933999999991
 20
44.5636300000000034
 30
0.0
 11
130.1242933999999991
 21
41.464429999999993
 31
0.0
  0
LINE
  5
29C
100
AcDbEntity
  8
0
 62
256
370
-1
 48
1.0
  6
BYLAYER
100
AcDbLine
 10
130.1242933999999991
 20
41.464429999999993
 30
0.0
 11
130.92629340000002
 21
41.464429999999993
 31
0.0
  0
LINE
  5
29D
100
AcDbEntity
  8
0
 62
256
370
-1
 48
1.0
  6
BYLAYER
100
AcDbLine
 10
130.92629340000002
 20
41.464429999999993
 30
0.0
 11
130.92629340000002
 21
40.4639300000000048
 31
0.0
  0
LINE
  5
29E
100
AcDbEntity
  8
0
 62
256
370
-1
 48
1.0
  6
BYLAYER
100
AcDbLine
 10
130.92629340000002
 20
40.4639300000000048
 30
0.0
 11
144.9252934000000153
 21
40.4639300000000048
 31
0.0
  0
LINE
  5
29F
100
AcDbEntity
  8
0
 62
256
370
-1
 48
1.0
  6
BYLAYER
100
AcDbLine
 10
144.9252934000000153
 20
40.4639300000000048
 30
0.0
 11
144.9252934000000153
 21
41.464429999999993
 31
0.0
  0
LINE
  5
2A0
100
AcDbEntity
  8
0
 62
256
370
-1
 48
1.0
  6
BYLAYER
100
AcDbLine
 10
144.9252934000000153
 20
41.464429999999993
 30
0.0
 11
145.726293400000003
 21
41.464429999999993
 31
0.0
  0
LINE
  5
2A1
100
AcDbEntity
  8
0
 62
256
370
-1
 48
1.0
  6
BYLAYER
100
AcDbLine
 10
145.726293400000003
 20
41.464429999999993
 30
0.0
 11
145.726293400000003
 21
44.5636300000000034
 31
0.0
  0
LINE
  5
2A2
100
AcDbEntity
  8
0
 62
256
370
-1
 48
1.0
  6
BYLAYER
100
AcDbLine
 10
145.726293400000003
 20
44.5636300000000034
 30
0.0
 11
144.9252934000000153
 21
44.5636300000000034
 31
0.0
  0
LINE
  5
2A3
100
AcDbEntity
  8
0
 62
256
370
-1
 48
1.0
  6
BYLAYER
100
AcDbLine
 10
144.9252934000000153
 20
44.5636300000000034
 30
0.0
 11
144.9252934000000153
 21
50.3650300000000044
 31
0.0
  0
LINE
  5
2A4
100
AcDbEntity
  8
0
 62
256
370
-1
 48
1.0
  6
BYLAYER
100
AcDbLine
 10
144.9252934000000153
 20
50.3650300000000044
 30
0.0
 11
145.726293400000003
 21
50.3650300000000044
 31
0.0
  0
LINE
  5
2A5
100
AcDbEntity
  8
0
 62
256
370
-1
 48
1.0
  6
BYLAYER
100
AcDbLine
 10
145.726293400000003
 20
50.3650300000000044
 30
0.0
 11
145.726293400000003
 21
53.4641300000000115
 31
0.0
  0
LINE
  5
2A6
100
AcDbEntity
  8
0
 62
256
370
-1
 48
1.0
  6
BYLAYER
100
AcDbLine
 10
145.726293400000003
 20
53.4641300000000115
 30
0.0
 11
144.9252934000000153
 21
53.4641300000000115
 31
0.0
  0
LINE
  5
2A7
100
AcDbEntity
  8
0
 62
256
370
-1
 48
1.0
  6
BYLAYER
100
AcDbLine
 10
144.9252934000000153
 20
53.4641300000000115
 30
0.0
 11
144.9252934000000153
 21
54.46323000000001
 31
0.0
  0
LINE
  5
2A8
100
AcDbEntity
  8
0
 62
256
370
-1
 48
1.0
  6
BYLAYER
100
AcDbLine
 10
144.9252934000000153
 20
54.46323000000001
 30
0.0
 11
130.92629340000002
 21
54.46323000000001
 31
0.0
  0
LINE
  5
2A9
100
AcDbEntity
  8
0
 62
256
370
-1
 48
1.0
  6
BYLAYER
100
AcDbLine
 10
149.976293400000003
 20
54.46323000000001
 30
0.0
 11
149.976293400000003
 21
53.4641300000000115
 31
0.0
  0
LINE
  5
2AA
100
AcDbEntity
  8
0
 62
256
370
-1
 48
1.0
  6
BYLAYER
100
AcDbLine
 10
149.976293400000003
 20
53.4641300000000115
 30
0.0
 11
149.1752934000000153
 21
53.4641300000000115
 31
0.0
  0
LINE
  5
2AB
100
AcDbEntity
  8
0
 62
256
370
-1
 48
1.0
  6
BYLAYER
100
AcDbLine
 10
149.1752934000000153
 20
53.4641300000000115
 30
0.0
 11
149.1752934000000153
 21
50.3650300000000044
 31
0.0
  0
LINE
  5
2AC
100
AcDbEntity
  8
0
 62
256
370
-1
 48
1.0
  6
BYLAYER
100
AcDbLine
 10
149.1752934000000153
 20
50.3650300000000044
 30
0.0
 11
149.976293400000003
 21
50.3650300000000044
 31
0.0
  0
LINE
  5
2AD
100
AcDbEntity
  8
0
 62
256
370
-1
 48
1.0
  6
BYLAYER
100
AcDbLine
 10
149.976293400000003
 20
50.3650300000000044
 30
0.0
 11
149.976293400000003
 21
44.5636300000000034
 31
0.0
  0
LINE
  5
2AE
100
AcDbEntity
  8
0
 62
256
370
-1
 48
1.0
  6
BYLAYER
100
AcDbLine
 10
149.976293400000003
 20
44.5636300000000034
 30
0.0
 11
149.1752934000000153
 21
44.5636300000000034
 31
0.0
  0
LINE
  5
2AF
100
AcDbEntity
  8
0
 62
256
370
-1
 48
1.0
  6
BYLAYER
100
AcDbLine
 10
149.1752934000000153
 20
44.5636300000000034
 30
0.0
 11
149.1752934000000153
 21
41.464429999999993
 31
0.0
  0
LINE
  5
2B0
100
AcDbEntity
  8
0
 62
256
370
-1
 48
1.0
  6
BYLAYER
100
AcDbLine
 10
149.1752934000000153
 20
41.464429999999993
 30
0.0
 11
149.976293400000003
 21
41.464429999999993
 31
0.0
  0
LINE
  5
2B1
100
AcDbEntity
  8
0
 62
256
370
-1
 48
1.0
  6
BYLAYER
100
AcDbLine
 10
149.976293400000003
 20
41.464429999999993
 30
0.0
 11
149.976293400000003
 21
40.4639300000000048
 31
0.0
  0
LINE
  5
2B2
100
AcDbEntity
  8
0
 62
256
370
-1
 48
1.0
  6
BYLAYER
100
AcDbLine
 10
149.976293400000003
 20
40.4639300000000048
 30
0.0
 11
163.9752933999999982
 21
40.4639300000000048
 31
0.0
  0
LINE
  5
2B3
100
AcDbEntity
  8
0
 62
256
370
-1
 48
1.0
  6
BYLAYER
100
AcDbLine
 10
163.9752933999999982
 20
40.4639300000000048
 30
0.0
 11
163.9752933999999982
 21
41.464429999999993
 31
0.0
  0
LINE
  5
2B4
100
AcDbEntity
  8
0
 62
256
370
-1
 48
1.0
  6
BYLAYER
100
AcDbLine
 10
163.9752933999999982
 20
41.464429999999993
 30
0.0
 11
164.7762934000000143
 21
41.464429999999993
 31
0.0
  0
LINE
  5
2B5
100
AcDbEntity
  8
0
 62
256
370
-1
 48
1.0
  6
BYLAYER
100
AcDbLine
 10
164.7762934000000143
 20
41.464429999999993
 30
0.0
 11
164.7762934000000143
 21
44.5636300000000034
 31
0.0
  0
LINE
  5
2B6
100
AcDbEntity
  8
0
 62
256
370
-1
 48
1.0
  6
BYLAYER
100
AcDbLine
 10
164.7762934000000143
 20
44.5636300000000034
 30
0.0
 11
163.9752933999999982
 21
44.5636300000000034
 31
0.0
  0
LINE
  5
2B7
100
AcDbEntity
  8
0
 62
256
370
-1
 48
1.0
  6
BYLAYER
100
AcDbLine
 10
163.9752933999999982
 20
44.5636300000000034
 30
0.0
 11
163.9752933999999982
 21
50.3650300000000044
 31
0.0
  0
LINE
  5
2B8
100
AcDbEntity
  8
0
 62
256
370
-1
 48
1.0
  6
BYLAYER
100
AcDbLine
 10
163.9752933999999982
 20
50.3650300000000044
 30
0.0
 11
164.7762934000000143
 21
50.3650300000000044
 31
0.0
  0
LINE
  5
2B9
100
AcDbEntity
  8
0
 62
256
370
-1
 48
1.0
  6
BYLAYER
100
AcDbLine
 10
164.7762934000000143
 20
50.3650300000000044
 30
0.0
 11
164.7762934000000143
 21
53.4641300000000115
 31
0.0
  0
LINE
  5
2BA
100
AcDbEntity
  8
0
 62
256
370
-1
 48
1.0
  6
BYLAYER
100
AcDbLine
 10
164.7762934000000143
 20
53.4641300000000115
 30
0.0
 11
163.9752933999999982
 21
53.4641300000000115
 31
0.0
  0
LINE
  5
2BB
100
AcDbEntity
  8
0
 62
256
370
-1
 48
1.0
  6
BYLAYER
100
AcDbLine
 10
163.9752933999999982
 20
53.4641300000000115
 30
0.0
 11
163.9752933999999982
 21
54.46323000000001
 31
0.0
  0
LINE
  5
2BC
100
AcDbEntity
  8
0
 62
256
370
-1
 48
1.0
  6
BYLAYER
100
AcDbLine
 10
163.9752933999999982
 20
54.46323000000001
 30
0.0
 11
149.976293400000003
 21
54.46323000000001
 31
0.0
  0
LINE
  5
2BD
100
AcDbEntity
  8
0
 62
256
370
-1
 48
1.0
  6
BYLAYER
100
AcDbLine
 10
169.0262934000000143
 20
54.46323000000001
 30
0.0
 11
169.0262934000000143
 21
53.4641300000000115
 31
0.0
  0
LINE
  5
2BE
100
AcDbEntity
  8
0
 62
256
370
-1
 48
1.0
  6
BYLAYER
100
AcDbLine
 10
169.0262934000000143
 20
53.4641300000000115
 30
0.0
 11
168.2252933999999982
 21
53.4641300000000115
 31
0.0
  0
LINE
  5
2BF
100
AcDbEntity
  8
0
 62
256
370
-1
 48
1.0
  6
BYLAYER
100
AcDbLine
 10
168.2252933999999982
 20
53.4641300000000115
 30
0.0
 11
168.2252933999999982
 21
50.3650300000000044
 31
0.0
  0
LINE
  5
2C0
100
AcDbEntity
  8
0
 62
256
370
-1
 48
1.0
  6
BYLAYER
100
AcDbLine
 10
168.2252933999999982
 20
50.3650300000000044
 30
0.0
 11
169.0262934000000143
 21
50.3650300000000044
 31
0.0
  0
LINE
  5
2C1
100
AcDbEntity
  8
0
 62
256
370
-1
 48
1.0
  6
BYLAYER
100
AcDbLine
 10
169.0262934000000143
 20
50.3650300000000044
 30
0.0
 11
169.0262934000000143
 21
44.5636300000000034
 31
0.0
  0
LINE
  5
2C2
100
AcDbEntity
  8
0
 62
256
370
-1
 48
1.0
  6
BYLAYER
100
AcDbLine
 10
169.0262934000000143
 20
44.5636300000000034
 30
0.0
 11
168.2252933999999982
 21
44.5636300000000034
 31
0.0
  0
LINE
  5
2C3
100
AcDbEntity
  8
0
 62
256
370
-1
 48
1.0
  6
BYLAYER
100
AcDbLine
 10
168.2252933999999982
 20
44.5636300000000034
 30
0.0
 11
168.2252933999999982
 21
41.464429999999993
 31
0.0
  0
LINE
  5
2C4
100
AcDbEntity
  8
0
 62
256
370
-1
 48
1.0
  6
BYLAYER
100
AcDbLine
 10
168.2252933999999982
 20
41.464429999999993
 30
0.0
 11
169.0262934000000143
 21
41.464429999999993
 31
0.0
  0
LINE
  5
2C5
100
AcDbEntity
  8
0
 62
256
370
-1
 48
1.0
  6
BYLAYER
100
AcDbLine
 10
169.0262934000000143
 20
41.464429999999993
 30
0.0
 11
169.0262934000000143
 21
40.4639300000000048
 31
0.0
  0
LINE
  5
2C6
100
AcDbEntity
  8
0
 62
256
370
-1
 48
1.0
  6
BYLAYER
100
AcDbLine
 10
169.0262934000000143
 20
40.4639300000000048
 30
0.0
 11
183.0272934000000191
 21
40.4639300000000048
 31
0.0
  0
LINE
  5
2C7
100
AcDbEntity
  8
0
 62
256
370
-1
 48
1.0
  6
BYLAYER
100
AcDbLine
 10
183.0272934000000191
 20
40.4639300000000048
 30
0.0
 11
183.0272934000000191
 21
41.464429999999993
 31
0.0
  0
LINE
  5
2C8
100
AcDbEntity
  8
0
 62
256
370
-1
 48
1.0
  6
BYLAYER
100
AcDbLine
 10
183.0272934000000191
 20
41.464429999999993
 30
0.0
 11
183.8262933999999973
 21
41.464429999999993
 31
0.0
  0
LINE
  5
2C9
100
AcDbEntity
  8
0
 62
256
370
-1
 48
1.0
  6
BYLAYER
100
AcDbLine
 10
183.8262933999999973
 20
41.464429999999993
 30
0.0
 11
183.8262933999999973
 21
44.5636300000000034
 31
0.0
  0
LINE
  5
2CA
100
AcDbEntity
  8
0
 62
256
370
-1
 48
1.0
  6
BYLAYER
100
AcDbLine
 10
183.8262933999999973
 20
44.5636300000000034
 30
0.0
 11
183.0272934000000191
 21
44.5636300000000034
 31
0.0
  0
LINE
  5
2CB
100
AcDbEntity
  8
0
 62
256
370
-1
 48
1.0
  6
BYLAYER
100
AcDbLine
 10
183.0272934000000191
 20
44.5636300000000034
 30
0.0
 11
183.0272934000000191
 21
50.3650300000000044
 31
0.0
  0
LINE
  5
2CC
100
AcDbEntity
  8
0
 62
256
370
-1
 48
1.0
  6
BYLAYER
100
AcDbLine
 10
183.0272934000000191
 20
50.3650300000000044
 30
0.0
 11
183.8262933999999973
 21
50.3650300000000044
 31
0.0
  0
LINE
  5
2CD
100
AcDbEntity
  8
0
 62
256
370
-1
 48
1.0
  6
BYLAYER
100
AcDbLine
 10
183.8262933999999973
 20
50.3650300000000044
 30
0.0
 11
183.8262933999999973
 21
53.4641300000000115
 31
0.0
  0
LINE
  5
2CE
100
AcDbEntity
  8
0
 62
256
370
-1
 48
1.0
  6
BYLAYER
100
AcDbLine
 10
183.8262933999999973
 20
53.4641300000000115
 30
0.0
 11
183.0272934000000191
 21
53.4641300000000115
 31
0.0
  0
LINE
  5
2CF
100
AcDbEntity
  8
0
 62
256
370
-1
 48
1.0
  6
BYLAYER
100
AcDbLine
 10
183.0272934000000191
 20
53.4641300000000115
 30
0.0
 11
183.0272934000000191
 21
54.46323000000001
 31
0.0
  0
LINE
  5
2D0
100
AcDbEntity
  8
0
 62
256
370
-1
 48
1.0
  6
BYLAYER
100
AcDbLine
 10
183.0272934000000191
 20
54.46323000000001
 30
0.0
 11
169.0262934000000143
 21
54.46323000000001
 31
0.0
  0
LINE
  5
2D1
100
AcDbEntity
  8
0
 62
256
370
-1
 48
1.0
  6
BYLAYER
100
AcDbLine
 10
188.0762933999999973
 20
54.46323000000001
 30
0.0
 11
188.0762933999999973
 21
53.4641300000000115
 31
0.0
  0
LINE
  5
2D2
100
AcDbEntity
  8
0
 62
256
370
-1
 48
1.0
  6
BYLAYER
100
AcDbLine
 10
188.0762933999999973
 20
53.4641300000000115
 30
0.0
 11
187.2772934000000191
 21
53.4641300000000115
 31
0.0
  0
LINE
  5
2D3
100
AcDbEntity
  8
0
 62
256
370
-1
 48
1.0
  6
BYLAYER
100
AcDbLine
 10
187.2772934000000191
 20
53.4641300000000115
 30
0.0
 11
187.2772934000000191
 21
50.3650300000000044
 31
0.0
  0
LINE
  5
2D4
100
AcDbEntity
  8
0
 62
256
370
-1
 48
1.0
  6
BYLAYER
100
AcDbLine
 10
187.2772934000000191
 20
50.3650300000000044
 30
0.0
 11
188.0762933999999973
 21
50.3650300000000044
 31
0.0
  0
LINE
  5
2D5
100
AcDbEntity
  8
0
 62
256
370
-1
 48
1.0
  6
BYLAYER
100
AcDbLine
 10
188.0762933999999973
 20
50.3650300000000044
 30
0.0
 11
188.0762933999999973
 21
44.5636300000000034
 31
0.0
  0
LINE
  5
2D6
100
AcDbEntity
  8
0
 62
256
370
-1
 48
1.0
  6
BYLAYER
100
AcDbLine
 10
188.0762933999999973
 20
44.5636300000000034
 30
0.0
 11
187.2772934000000191
 21
44.5636300000000034
 31
0.0
  0
LINE
  5
2D7
100
AcDbEntity
  8
0
 62
256
370
-1
 48
1.0
  6
BYLAYER
100
AcDbLine
 10
187.2772934000000191
 20
44.5636300000000034
 30
0.0
 11
187.2772934000000191
 21
41.464429999999993
 31
0.0
  0
LINE
  5
2D8
100
AcDbEntity
  8
0
 62
256
370
-1
 48
1.0
  6
BYLAYER
100
AcDbLine
 10
187.2772934000000191
 20
41.464429999999993
 30
0.0
 11
188.0762933999999973
 21
41.464429999999993
 31
0.0
  0
LINE
  5
2D9
100
AcDbEntity
  8
0
 62
256
370
-1
 48
1.0
  6
BYLAYER
100
AcDbLine
 10
188.0762933999999973
 20
41.464429999999993
 30
0.0
 11
188.0762933999999973
 21
40.4639300000000048
 31
0.0
  0
LINE
  5
2DA
100
AcDbEntity
  8
0
 62
256
370
-1
 48
1.0
  6
BYLAYER
100
AcDbLine
 10
188.0762933999999973
 20
40.4639300000000048
 30
0.0
 11
202.0752934000000209
 21
40.4639300000000048
 31
0.0
  0
LINE
  5
2DB
100
AcDbEntity
  8
0
 62
256
370
-1
 48
1.0
  6
BYLAYER
100
AcDbLine
 10
202.0752934000000209
 20
40.4639300000000048
 30
0.0
 11
202.0752934000000209
 21
41.464429999999993
 31
0.0
  0
LINE
  5
2DC
100
AcDbEntity
  8
0
 62
256
370
-1
 48
1.0
  6
BYLAYER
100
AcDbLine
 10
202.0752934000000209
 20
41.464429999999993
 30
0.0
 11
202.8762934000000087
 21
41.464429999999993
 31
0.0
  0
LINE
  5
2DD
100
AcDbEntity
  8
0
 62
256
370
-1
 48
1.0
  6
BYLAYER
100
AcDbLine
 10
202.8762934000000087
 20
41.464429999999993
 30
0.0
 11
202.8762934000000087
 21
44.5636300000000034
 31
0.0
  0
LINE
  5
2DE
100
AcDbEntity
  8
0
 62
256
370
-1
 48
1.0
  6
BYLAYER
100
AcDbLine
 10
202.8762934000000087
 20
44.5636300000000034
 30
0.0
 11
202.0752934000000209
 21
44.5636300000000034
 31
0.0
  0
LINE
  5
2DF
100
AcDbEntity
  8
0
 62
256
370
-1
 48
1.0
  6
BYLAYER
100
AcDbLine
 10
202.0752934000000209
 20
44.5636300000000034
 30
0.0
 11
202.0752934000000209
 21
50.3650300000000044
 31
0.0
  0
LINE
  5
2E0
100
AcDbEntity
  8
0
 62
256
370
-1
 48
1.0
  6
BYLAYER
100
AcDbLine
 10
202.0752934000000209
 20
50.3650300000000044
 30
0.0
 11
202.8762934000000087
 21
50.3650300000000044
 31
0.0
  0
LINE
  5
2E1
100
AcDbEntity
  8
0
 62
256
370
-1
 48
1.0
  6
BYLAYER
100
AcDbLine
 10
202.8762934000000087
 20
50.3650300000000044
 30
0.0
 11
202.8762934000000087
 21
53.4641300000000115
 31
0.0
  0
LINE
  5
2E2
100
AcDbEntity
  8
0
 62
256
370
-1
 48
1.0
  6
BYLAYER
100
AcDbLine
 10
202.8762934000000087
 20
53.4641300000000115
 30
0.0
 11
202.0752934000000209
 21
53.4641300000000115
 31
0.0
  0
LINE
  5
2E3
100
AcDbEntity
  8
0
 62
256
370
-1
 48
1.0
  6
BYLAYER
100
AcDbLine
 10
202.0752934000000209
 20
53.4641300000000115
 30
0.0
 11
202.0752934000000209
 21
54.46323000000001
 31
0.0
  0
LINE
  5
2E4
100
AcDbEntity
  8
0
 62
256
370
-1
 48
1.0
  6
BYLAYER
100
AcDbLine
 10
202.0752934000000209
 20
54.46323000000001
 30
0.0
 11
188.0762933999999973
 21
54.46323000000001
 31
0.0
  0
LINE
  5
2E5
100
AcDbEntity
  8
0
 62
256
370
-1
 48
1.0
  6
BYLAYER
100
AcDbLine
 10
207.1262934000000087
 20
54.46323000000001
 30
0.0
 11
207.1262934000000087
 21
53.4641300000000115
 31
0.0
  0
LINE
  5
2E6
100
AcDbEntity
  8
0
 62
256
370
-1
 48
1.0
  6
BYLAYER
100
AcDbLine
 10
207.1262934000000087
 20
53.4641300000000115
 30
0.0
 11
206.3252934000000209
 21
53.4641300000000115
 31
0.0
  0
LINE
  5
2E7
100
AcDbEntity
  8
0
 62
256
370
-1
 48
1.0
  6
BYLAYER
100
AcDbLine
 10
206.3252934000000209
 20
53.4641300000000115
 30
0.0
 11
206.3252934000000209
 21
50.3650300000000044
 31
0.0
  0
LINE
  5
2E8
100
AcDbEntity
  8
0
 62
256
370
-1
 48
1.0
  6
BYLAYER
100
AcDbLine
 10
206.3252934000000209
 20
50.3650300000000044
 30
0.0
 11
207.1262934000000087
 21
50.3650300000000044
 31
0.0
  0
LINE
  5
2E9
100
AcDbEntity
  8
0
 62
256
370
-1
 48
1.0
  6
BYLAYER
100
AcDbLine
 10
207.1262934000000087
 20
50.3650300000000044
 30
0.0
 11
207.1262934000000087
 21
44.5636300000000034
 31
0.0
  0
LINE
  5
2EA
100
AcDbEntity
  8
0
 62
256
370
-1
 48
1.0
  6
BYLAYER
100
AcDbLine
 10
207.1262934000000087
 20
44.5636300000000034
 30
0.0
 11
206.3252934000000209
 21
44.5636300000000034
 31
0.0
  0
LINE
  5
2EB
100
AcDbEntity
  8
0
 62
256
370
-1
 48
1.0
  6
BYLAYER
100
AcDbLine
 10
206.3252934000000209
 20
44.5636300000000034
 30
0.0
 11
206.3252934000000209
 21
41.464429999999993
 31
0.0
  0
LINE
  5
2EC
100
AcDbEntity
  8
0
 62
256
370
-1
 48
1.0
  6
BYLAYER
100
AcDbLine
 10
206.3252934000000209
 20
41.464429999999993
 30
0.0
 11
207.1262934000000087
 21
41.464429999999993
 31
0.0
  0
LINE
  5
2ED
100
AcDbEntity
  8
0
 62
256
370
-1
 48
1.0
  6
BYLAYER
100
AcDbLine
 10
207.1262934000000087
 20
41.464429999999993
 30
0.0
 11
207.1262934000000087
 21
40.4639300000000048
 31
0.0
  0
LINE
  5
2EE
100
AcDbEntity
  8
0
 62
256
370
-1
 48
1.0
  6
BYLAYER
100
AcDbLine
 10
207.1262934000000087
 20
40.4639300000000048
 30
0.0
 11
221.1272934000000134
 21
40.4639300000000048
 31
0.0
  0
LINE
  5
2EF
100
AcDbEntity
  8
0
 62
256
370
-1
 48
1.0
  6
BYLAYER
100
AcDbLine
 10
221.1272934000000134
 20
40.4639300000000048
 30
0.0
 11
221.1272934000000134
 21
41.464429999999993
 31
0.0
  0
LINE
  5
2F0
100
AcDbEntity
  8
0
 62
256
370
-1
 48
1.0
  6
BYLAYER
100
AcDbLine
 10
221.1272934000000134
 20
41.464429999999993
 30
0.0
 11
221.92629340000002
 21
41.464429999999993
 31
0.0
  0
LINE
  5
2F1
100
AcDbEntity
  8
0
 62
256
370
-1
 48
1.0
  6
BYLAYER
100
AcDbLine
 10
221.92629340000002
 20
41.464429999999993
 30
0.0
 11
221.92629340000002
 21
44.5636300000000034
 31
0.0
  0
LINE
  5
2F2
100
AcDbEntity
  8
0
 62
256
370
-1
 48
1.0
  6
BYLAYER
100
AcDbLine
 10
221.92629340000002
 20
44.5636300000000034
 30
0.0
 11
221.1272934000000134
 21
44.5636300000000034
 31
0.0
  0
LINE
  5
2F3
100
AcDbEntity
  8
0
 62
256
370
-1
 48
1.0
  6
BYLAYER
100
AcDbLine
 10
221.1272934000000134
 20
44.5636300000000034
 30
0.0
 11
221.1272934000000134
 21
50.3650300000000044
 31
0.0
  0
LINE
  5
2F4
100
AcDbEntity
  8
0
 62
256
370
-1
 48
1.0
  6
BYLAYER
100
AcDbLine
 10
221.1272934000000134
 20
50.3650300000000044
 30
0.0
 11
221.92629340000002
 21
50.3650300000000044
 31
0.0
  0
LINE
  5
2F5
100
AcDbEntity
  8
0
 62
256
370
-1
 48
1.0
  6
BYLAYER
100
AcDbLine
 10
221.92629340000002
 20
50.3650300000000044
 30
0.0
 11
221.92629340000002
 21
53.4641300000000115
 31
0.0
  0
LINE
  5
2F6
100
AcDbEntity
  8
0
 62
256
370
-1
 48
1.0
  6
BYLAYER
100
AcDbLine
 10
221.92629340000002
 20
53.4641300000000115
 30
0.0
 11
221.1272934000000134
 21
53.4641300000000115
 31
0.0
  0
LINE
  5
2F7
100
AcDbEntity
  8
0
 62
256
370
-1
 48
1.0
  6
BYLAYER
100
AcDbLine
 10
221.1272934000000134
 20
53.4641300000000115
 30
0.0
 11
221.1272934000000134
 21
54.46323000000001
 31
0.0
  0
LINE
  5
2F8
100
AcDbEntity
  8
0
 62
256
370
-1
 48
1.0
  6
BYLAYER
100
AcDbLine
 10
221.1272934000000134
 20
54.46323000000001
 30
0.0
 11
207.1262934000000087
 21
54.46323000000001
 31
0.0
  0
LINE
  5
2F9
100
AcDbEntity
  8
0
 62
256
370
-1
 48
1.0
  6
BYLAYER
100
AcDbLine
 10
226.17629340000002
 20
54.46323000000001
 30
0.0
 11
226.17629340000002
 21
53.4641300000000115
 31
0.0
  0
LINE
  5
2FA
100
AcDbEntity
  8
0
 62
256
370
-1
 48
1.0
  6
BYLAYER
100
AcDbLine
 10
226.17629340000002
 20
53.4641300000000115
 30
0.0
 11
225.3772934000000134
 21
53.4641300000000115
 31
0.0
  0
LINE
  5
2FB
100
AcDbEntity
  8
0
 62
256
370
-1
 48
1.0
  6
BYLAYER
100
AcDbLine
 10
225.3772934000000134
 20
53.4641300000000115
 30
0.0
 11
225.3772934000000134
 21
50.3650300000000044
 31
0.0
  0
LINE
  5
2FC
100
AcDbEntity
  8
0
 62
256
370
-1
 48
1.0
  6
BYLAYER
100
AcDbLine
 10
225.3772934000000134
 20
50.3650300000000044
 30
0.0
 11
226.17629340000002
 21
50.3650300000000044
 31
0.0
  0
LINE
  5
2FD
100
AcDbEntity
  8
0
 62
256
370
-1
 48
1.0
  6
BYLAYER
100
AcDbLine
 10
226.17629340000002
 20
50.3650300000000044
 30
0.0
 11
226.17629340000002
 21
44.5636300000000034
 31
0.0
  0
LINE
  5
2FE
100
AcDbEntity
  8
0
 62
256
370
-1
 48
1.0
  6
BYLAYER
100
AcDbLine
 10
226.17629340000002
 20
44.5636300000000034
 30
0.0
 11
225.3772934000000134
 21
44.5636300000000034
 31
0.0
  0
LINE
  5
2FF
100
AcDbEntity
  8
0
 62
256
370
-1
 48
1.0
  6
BYLAYER
100
AcDbLine
 10
225.3772934000000134
 20
44.5636300000000034
 30
0.0
 11
225.3772934000000134
 21
41.464429999999993
 31
0.0
  0
LINE
  5
300
100
AcDbEntity
  8
0
 62
256
370
-1
 48
1.0
  6
BYLAYER
100
AcDbLine
 10
225.3772934000000134
 20
41.464429999999993
 30
0.0
 11
226.17629340000002
 21
41.464429999999993
 31
0.0
  0
LINE
  5
301
100
AcDbEntity
  8
0
 62
256
370
-1
 48
1.0
  6
BYLAYER
100
AcDbLine
 10
226.17629340000002
 20
41.464429999999993
 30
0.0
 11
226.17629340000002
 21
40.4639300000000048
 31
0.0
  0
LINE
  5
302
100
AcDbEntity
  8
0
 62
256
370
-1
 48
1.0
  6
BYLAYER
100
AcDbLine
 10
226.17629340000002
 20
40.4639300000000048
 30
0.0
 11
240.1772933999999964
 21
40.4639300000000048
 31
0.0
  0
LINE
  5
303
100
AcDbEntity
  8
0
 62
256
370
-1
 48
1.0
  6
BYLAYER
100
AcDbLine
 10
240.1772933999999964
 20
40.4639300000000048
 30
0.0
 11
240.1772933999999964
 21
41.464429999999993
 31
0.0
  0
LINE
  5
304
100
AcDbEntity
  8
0
 62
256
370
-1
 48
1.0
  6
BYLAYER
100
AcDbLine
 10
240.1772933999999964
 20
41.464429999999993
 30
0.0
 11
240.976293400000003
 21
41.464429999999993
 31
0.0
  0
LINE
  5
305
100
AcDbEntity
  8
0
 62
256
370
-1
 48
1.0
  6
BYLAYER
100
AcDbLine
 10
240.976293400000003
 20
41.464429999999993
 30
0.0
 11
240.976293400000003
 21
44.5636300000000034
 31
0.0
  0
LINE
  5
306
100
AcDbEntity
  8
0
 62
256
370
-1
 48
1.0
  6
BYLAYER
100
AcDbLine
 10
240.976293400000003
 20
44.5636300000000034
 30
0.0
 11
240.1772933999999964
 21
44.5636300000000034
 31
0.0
  0
LINE
  5
307
100
AcDbEntity
  8
0
 62
256
370
-1
 48
1.0
  6
BYLAYER
100
AcDbLine
 10
240.1772933999999964
 20
44.5636300000000034
 30
0.0
 11
240.1772933999999964
 21
50.3650300000000044
 31
0.0
  0
LINE
  5
308
100
AcDbEntity
  8
0
 62
256
370
-1
 48
1.0
  6
BYLAYER
100
AcDbLine
 10
240.1772933999999964
 20
50.3650300000000044
 30
0.0
 11
240.976293400000003
 21
50.3650300000000044
 31
0.0
  0
LINE
  5
309
100
AcDbEntity
  8
0
 62
256
370
-1
 48
1.0
  6
BYLAYER
100
AcDbLine
 10
240.976293400000003
 20
50.3650300000000044
 30
0.0
 11
240.976293400000003
 21
53.4641300000000115
 31
0.0
  0
LINE
  5
30A
100
AcDbEntity
  8
0
 62
256
370
-1
 48
1.0
  6
BYLAYER
100
AcDbLine
 10
240.976293400000003
 20
53.4641300000000115
 30
0.0
 11
240.1772933999999964
 21
53.4641300000000115
 31
0.0
  0
LINE
  5
30B
100
AcDbEntity
  8
0
 62
256
370
-1
 48
1.0
  6
BYLAYER
100
AcDbLine
 10
240.1772933999999964
 20
53.4641300000000115
 30
0.0
 11
240.1772933999999964
 21
54.46323000000001
 31
0.0
  0
LINE
  5
30C
100
AcDbEntity
  8
0
 62
256
370
-1
 48
1.0
  6
BYLAYER
100
AcDbLine
 10
240.1772933999999964
 20
54.46323000000001
 30
0.0
 11
226.17629340000002
 21
54.46323000000001
 31
0.0
  0
LINE
  5
30D
100
AcDbEntity
  8
0
 62
256
370
-1
 48
1.0
  6
BYLAYER
100
AcDbLine
 10
7.1010234000000025
 20
73.5146299999999968
 30
0.0
 11
7.1010234000000025
 21
72.5141300000000086
 31
0.0
  0
LINE
  5
30E
100
AcDbEntity
  8
0
 62
256
370
-1
 48
1.0
  6
BYLAYER
100
AcDbLine
 10
7.1010234000000025
 20
72.5141300000000086
 30
0.0
 11
6.3017633999999987
 21
72.5141300000000086
 31
0.0
  0
LINE
  5
30F
100
AcDbEntity
  8
0
 62
256
370
-1
 48
1.0
  6
BYLAYER
100
AcDbLine
 10
6.3017633999999987
 20
72.5141300000000086
 30
0.0
 11
6.3017633999999987
 21
69.4150300000000016
 31
0.0
  0
LINE
  5
310
100
AcDbEntity
  8
0
 62
256
370
-1
 48
1.0
  6
BYLAYER
100
AcDbLine
 10
6.3017633999999987
 20
69.4150300000000016
 30
0.0
 11
7.1010234000000025
 21
69.4150300000000016
 31
0.0
  0
LINE
  5
311
100
AcDbEntity
  8
0
 62
256
370
-1
 48
1.0
  6
BYLAYER
100
AcDbLine
 10
7.1010234000000025
 20
69.4150300000000016
 30
0.0
 11
7.1010234000000025
 21
63.6150300000000044
 31
0.0
  0
LINE
  5
312
100
AcDbEntity
  8
0
 62
256
370
-1
 48
1.0
  6
BYLAYER
100
AcDbLine
 10
7.1010234000000025
 20
63.6150300000000044
 30
0.0
 11
6.3017633999999987
 21
63.6150300000000044
 31
0.0
  0
LINE
  5
313
100
AcDbEntity
  8
0
 62
256
370
-1
 48
1.0
  6
BYLAYER
100
AcDbLine
 10
6.3017633999999987
 20
63.6150300000000044
 30
0.0
 11
6.3017633999999987
 21
60.5144300000000044
 31
0.0
  0
LINE
  5
314
100
AcDbEntity
  8
0
 62
256
370
-1
 48
1.0
  6
BYLAYER
100
AcDbLine
 10
6.3017633999999987
 20
60.5144300000000044
 30
0.0
 11
7.1010234000000025
 21
60.5144300000000044
 31
0.0
  0
LINE
  5
315
100
AcDbEntity
  8
0
 62
256
370
-1
 48
1.0
  6
BYLAYER
100
AcDbLine
 10
7.1010234000000025
 20
60.5144300000000044
 30
0.0
 11
7.1010234000000025
 21
59.5150299999999959
 31
0.0
  0
LINE
  5
316
100
AcDbEntity
  8
0
 62
256
370
-1
 48
1.0
  6
BYLAYER
100
AcDbLine
 10
7.1010234000000025
 20
59.5150299999999959
 30
0.0
 11
21.1018934000000087
 21
59.5150299999999959
 31
0.0
  0
LINE
  5
317
100
AcDbEntity
  8
0
 62
256
370
-1
 48
1.0
  6
BYLAYER
100
AcDbLine
 10
21.1018934000000087
 20
59.5150299999999959
 30
0.0
 11
21.1018934000000087
 21
60.5144300000000044
 31
0.0
  0
LINE
  5
318
100
AcDbEntity
  8
0
 62
256
370
-1
 48
1.0
  6
BYLAYER
100
AcDbLine
 10
21.1018934000000087
 20
60.5144300000000044
 30
0.0
 11
21.901193400000011
 21
60.5144300000000044
 31
0.0
  0
LINE
  5
319
100
AcDbEntity
  8
0
 62
256
370
-1
 48
1.0
  6
BYLAYER
100
AcDbLine
 10
21.901193400000011
 20
60.5144300000000044
 30
0.0
 11
21.901193400000011
 21
63.6150300000000044
 31
0.0
  0
LINE
  5
31A
100
AcDbEntity
  8
0
 62
256
370
-1
 48
1.0
  6
BYLAYER
100
AcDbLine
 10
21.901193400000011
 20
63.6150300000000044
 30
0.0
 11
21.1018934000000087
 21
63.6150300000000044
 31
0.0
  0
LINE
  5
31B
100
AcDbEntity
  8
0
 62
256
370
-1
 48
1.0
  6
BYLAYER
100
AcDbLine
 10
21.1018934000000087
 20
63.6150300000000044
 30
0.0
 11
21.1018934000000087
 21
69.4150300000000016
 31
0.0
  0
LINE
  5
31C
100
AcDbEntity
  8
0
 62
256
370
-1
 48
1.0
  6
BYLAYER
100
AcDbLine
 10
21.1018934000000087
 20
69.4150300000000016
 30
0.0
 11
21.901193400000011
 21
69.4150300000000016
 31
0.0
  0
LINE
  5
31D
100
AcDbEntity
  8
0
 62
256
370
-1
 48
1.0
  6
BYLAYER
100
AcDbLine
 10
21.901193400000011
 20
69.4150300000000016
 30
0.0
 11
21.901193400000011
 21
72.5141300000000086
 31
0.0
  0
LINE
  5
31E
100
AcDbEntity
  8
0
 62
256
370
-1
 48
1.0
  6
BYLAYER
100
AcDbLine
 10
21.901193400000011
 20
72.5141300000000086
 30
0.0
 11
21.1018934000000087
 21
72.5141300000000086
 31
0.0
  0
LINE
  5
31F
100
AcDbEntity
  8
0
 62
256
370
-1
 48
1.0
  6
BYLAYER
100
AcDbLine
 10
21.1018934000000087
 20
72.5141300000000086
 30
0.0
 11
21.1018934000000087
 21
73.5146299999999968
 31
0.0
  0
LINE
  5
320
100
AcDbEntity
  8
0
 62
256
370
-1
 48
1.0
  6
BYLAYER
100
AcDbLine
 10
21.1018934000000087
 20
73.5146299999999968
 30
0.0
 11
7.1010234000000025
 21
73.5146299999999968
 31
0.0
  0
LINE
  5
321
100
AcDbEntity
  8
0
 62
256
370
-1
 48
1.0
  6
BYLAYER
100
AcDbLine
 10
30.9121934000000067
 20
73.5146299999999968
 30
0.0
 11
30.9121934000000067
 21
72.5141300000000086
 31
0.0
  0
LINE
  5
322
100
AcDbEntity
  8
0
 62
256
370
-1
 48
1.0
  6
BYLAYER
100
AcDbLine
 10
30.9121934000000067
 20
72.5141300000000086
 30
0.0
 11
30.1128934000000186
 21
72.5141300000000086
 31
0.0
  0
LINE
  5
323
100
AcDbEntity
  8
0
 62
256
370
-1
 48
1.0
  6
BYLAYER
100
AcDbLine
 10
30.1128934000000186
 20
72.5141300000000086
 30
0.0
 11
30.1128934000000186
 21
69.4150300000000016
 31
0.0
  0
LINE
  5
324
100
AcDbEntity
  8
0
 62
256
370
-1
 48
1.0
  6
BYLAYER
100
AcDbLine
 10
30.1128934000000186
 20
69.4150300000000016
 30
0.0
 11
30.9121934000000067
 21
69.4150300000000016
 31
0.0
  0
LINE
  5
325
100
AcDbEntity
  8
0
 62
256
370
-1
 48
1.0
  6
BYLAYER
100
AcDbLine
 10
30.9121934000000067
 20
69.4150300000000016
 30
0.0
 11
30.9121934000000067
 21
63.6150300000000044
 31
0.0
  0
LINE
  5
326
100
AcDbEntity
  8
0
 62
256
370
-1
 48
1.0
  6
BYLAYER
100
AcDbLine
 10
30.9121934000000067
 20
63.6150300000000044
 30
0.0
 11
30.1128934000000186
 21
63.6150300000000044
 31
0.0
  0
LINE
  5
327
100
AcDbEntity
  8
0
 62
256
370
-1
 48
1.0
  6
BYLAYER
100
AcDbLine
 10
30.1128934000000186
 20
63.6150300000000044
 30
0.0
 11
30.1128934000000186
 21
60.5144300000000044
 31
0.0
  0
LINE
  5
328
100
AcDbEntity
  8
0
 62
256
370
-1
 48
1.0
  6
BYLAYER
100
AcDbLine
 10
30.1128934000000186
 20
60.5144300000000044
 30
0.0
 11
30.9121934000000067
 21
60.5144300000000044
 31
0.0
  0
LINE
  5
329
100
AcDbEntity
  8
0
 62
256
370
-1
 48
1.0
  6
BYLAYER
100
AcDbLine
 10
30.9121934000000067
 20
60.5144300000000044
 30
0.0
 11
30.9121934000000067
 21
59.5150299999999959
 31
0.0
  0
LINE
  5
32A
100
AcDbEntity
  8
0
 62
256
370
-1
 48
1.0
  6
BYLAYER
100
AcDbLine
 10
30.9121934000000067
 20
59.5150299999999959
 30
0.0
 11
44.9129934000000048
 21
59.5150299999999959
 31
0.0
  0
LINE
  5
32B
100
AcDbEntity
  8
0
 62
256
370
-1
 48
1.0
  6
BYLAYER
100
AcDbLine
 10
44.9129934000000048
 20
59.5150299999999959
 30
0.0
 11
44.9129934000000048
 21
60.5144300000000044
 31
0.0
  0
LINE
  5
32C
100
AcDbEntity
  8
0
 62
256
370
-1
 48
1.0
  6
BYLAYER
100
AcDbLine
 10
44.9129934000000048
 20
60.5144300000000044
 30
0.0
 11
45.7137934000000143
 21
60.5144300000000044
 31
0.0
  0
LINE
  5
32D
100
AcDbEntity
  8
0
 62
256
370
-1
 48
1.0
  6
BYLAYER
100
AcDbLine
 10
45.7137934000000143
 20
60.5144300000000044
 30
0.0
 11
45.7137934000000143
 21
63.6150300000000044
 31
0.0
  0
LINE
  5
32E
100
AcDbEntity
  8
0
 62
256
370
-1
 48
1.0
  6
BYLAYER
100
AcDbLine
 10
45.7137934000000143
 20
63.6150300000000044
 30
0.0
 11
44.9129934000000048
 21
63.6150300000000044
 31
0.0
  0
LINE
  5
32F
100
AcDbEntity
  8
0
 62
256
370
-1
 48
1.0
  6
BYLAYER
100
AcDbLine
 10
44.9129934000000048
 20
63.6150300000000044
 30
0.0
 11
44.9129934000000048
 21
69.4150300000000016
 31
0.0
  0
LINE
  5
330
100
AcDbEntity
  8
0
 62
256
370
-1
 48
1.0
  6
BYLAYER
100
AcDbLine
 10
44.9129934000000048
 20
69.4150300000000016
 30
0.0
 11
45.7137934000000143
 21
69.4150300000000016
 31
0.0
  0
LINE
  5
331
100
AcDbEntity
  8
0
 62
256
370
-1
 48
1.0
  6
BYLAYER
100
AcDbLine
 10
45.7137934000000143
 20
69.4150300000000016
 30
0.0
 11
45.7137934000000143
 21
72.5141300000000086
 31
0.0
  0
LINE
  5
332
100
AcDbEntity
  8
0
 62
256
370
-1
 48
1.0
  6
BYLAYER
100
AcDbLine
 10
45.7137934000000143
 20
72.5141300000000086
 30
0.0
 11
44.9129934000000048
 21
72.5141300000000086
 31
0.0
  0
LINE
  5
333
100
AcDbEntity
  8
0
 62
256
370
-1
 48
1.0
  6
BYLAYER
100
AcDbLine
 10
44.9129934000000048
 20
72.5141300000000086
 30
0.0
 11
44.9129934000000048
 21
73.5146299999999968
 31
0.0
  0
LINE
  5
334
100
AcDbEntity
  8
0
 62
256
370
-1
 48
1.0
  6
BYLAYER
100
AcDbLine
 10
44.9129934000000048
 20
73.5146299999999968
 30
0.0
 11
30.9121934000000067
 21
73.5146299999999968
 31
0.0
  0
LINE
  5
335
100
AcDbEntity
  8
0
 62
256
370
-1
 48
1.0
  6
BYLAYER
100
AcDbLine
 10
49.963693400000011
 20
73.5146299999999968
 30
0.0
 11
49.963693400000011
 21
72.5141300000000086
 31
0.0
  0
LINE
  5
336
100
AcDbEntity
  8
0
 62
256
370
-1
 48
1.0
  6
BYLAYER
100
AcDbLine
 10
49.963693400000011
 20
72.5141300000000086
 30
0.0
 11
49.1628934000000015
 21
72.5141300000000086
 31
0.0
  0
LINE
  5
337
100
AcDbEntity
  8
0
 62
256
370
-1
 48
1.0
  6
BYLAYER
100
AcDbLine
 10
49.1628934000000015
 20
72.5141300000000086
 30
0.0
 11
49.1628934000000015
 21
69.4150300000000016
 31
0.0
  0
LINE
  5
338
100
AcDbEntity
  8
0
 62
256
370
-1
 48
1.0
  6
BYLAYER
100
AcDbLine
 10
49.1628934000000015
 20
69.4150300000000016
 30
0.0
 11
49.963693400000011
 21
69.4150300000000016
 31
0.0
  0
LINE
  5
339
100
AcDbEntity
  8
0
 62
256
370
-1
 48
1.0
  6
BYLAYER
100
AcDbLine
 10
49.963693400000011
 20
69.4150300000000016
 30
0.0
 11
49.963693400000011
 21
63.6150300000000044
 31
0.0
  0
LINE
  5
33A
100
AcDbEntity
  8
0
 62
256
370
-1
 48
1.0
  6
BYLAYER
100
AcDbLine
 10
49.963693400000011
 20
63.6150300000000044
 30
0.0
 11
49.1628934000000015
 21
63.6150300000000044
 31
0.0
  0
LINE
  5
33B
100
AcDbEntity
  8
0
 62
256
370
-1
 48
1.0
  6
BYLAYER
100
AcDbLine
 10
49.1628934000000015
 20
63.6150300000000044
 30
0.0
 11
49.1628934000000015
 21
60.5144300000000044
 31
0.0
  0
LINE
  5
33C
100
AcDbEntity
  8
0
 62
256
370
-1
 48
1.0
  6
BYLAYER
100
AcDbLine
 10
49.1628934000000015
 20
60.5144300000000044
 30
0.0
 11
49.963693400000011
 21
60.5144300000000044
 31
0.0
  0
LINE
  5
33D
100
AcDbEntity
  8
0
 62
256
370
-1
 48
1.0
  6
BYLAYER
100
AcDbLine
 10
49.963693400000011
 20
60.5144300000000044
 30
0.0
 11
49.963693400000011
 21
59.5150299999999959
 31
0.0
  0
LINE
  5
33E
100
AcDbEntity
  8
0
 62
256
370
-1
 48
1.0
  6
BYLAYER
100
AcDbLine
 10
49.963693400000011
 20
59.5150299999999959
 30
0.0
 11
63.9629934000000162
 21
59.5150299999999959
 31
0.0
  0
LINE
  5
33F
100
AcDbEntity
  8
0
 62
256
370
-1
 48
1.0
  6
BYLAYER
100
AcDbLine
 10
63.9629934000000162
 20
59.5150299999999959
 30
0.0
 11
63.9629934000000162
 21
60.5144300000000044
 31
0.0
  0
LINE
  5
340
100
AcDbEntity
  8
0
 62
256
370
-1
 48
1.0
  6
BYLAYER
100
AcDbLine
 10
63.9629934000000162
 20
60.5144300000000044
 30
0.0
 11
64.7637934000000115
 21
60.5144300000000044
 31
0.0
  0
LINE
  5
341
100
AcDbEntity
  8
0
 62
256
370
-1
 48
1.0
  6
BYLAYER
100
AcDbLine
 10
64.7637934000000115
 20
60.5144300000000044
 30
0.0
 11
64.7637934000000115
 21
63.6150300000000044
 31
0.0
  0
LINE
  5
342
100
AcDbEntity
  8
0
 62
256
370
-1
 48
1.0
  6
BYLAYER
100
AcDbLine
 10
64.7637934000000115
 20
63.6150300000000044
 30
0.0
 11
63.9629934000000162
 21
63.6150300000000044
 31
0.0
  0
LINE
  5
343
100
AcDbEntity
  8
0
 62
256
370
-1
 48
1.0
  6
BYLAYER
100
AcDbLine
 10
63.9629934000000162
 20
63.6150300000000044
 30
0.0
 11
63.9629934000000162
 21
69.4150300000000016
 31
0.0
  0
LINE
  5
344
100
AcDbEntity
  8
0
 62
256
370
-1
 48
1.0
  6
BYLAYER
100
AcDbLine
 10
63.9629934000000162
 20
69.4150300000000016
 30
0.0
 11
64.7637934000000115
 21
69.4150300000000016
 31
0.0
  0
LINE
  5
345
100
AcDbEntity
  8
0
 62
256
370
-1
 48
1.0
  6
BYLAYER
100
AcDbLine
 10
64.7637934000000115
 20
69.4150300000000016
 30
0.0
 11
64.7637934000000115
 21
72.5141300000000086
 31
0.0
  0
LINE
  5
346
100
AcDbEntity
  8
0
 62
256
370
-1
 48
1.0
  6
BYLAYER
100
AcDbLine
 10
64.7637934000000115
 20
72.5141300000000086
 30
0.0
 11
63.9629934000000162
 21
72.5141300000000086
 31
0.0
  0
LINE
  5
347
100
AcDbEntity
  8
0
 62
256
370
-1
 48
1.0
  6
BYLAYER
100
AcDbLine
 10
63.9629934000000162
 20
72.5141300000000086
 30
0.0
 11
63.9629934000000162
 21
73.5146299999999968
 31
0.0
  0
LINE
  5
348
100
AcDbEntity
  8
0
 62
256
370
-1
 48
1.0
  6
BYLAYER
100
AcDbLine
 10
63.9629934000000162
 20
73.5146299999999968
 30
0.0
 11
49.963693400000011
 21
73.5146299999999968
 31
0.0
  0
LINE
  5
349
100
AcDbEntity
  8
0
 62
256
370
-1
 48
1.0
  6
BYLAYER
100
AcDbLine
 10
69.0136934000000082
 20
73.5146299999999968
 30
0.0
 11
69.0136934000000082
 21
72.5141300000000086
 31
0.0
  0
LINE
  5
34A
100
AcDbEntity
  8
0
 62
256
370
-1
 48
1.0
  6
BYLAYER
100
AcDbLine
 10
69.0136934000000082
 20
72.5141300000000086
 30
0.0
 11
68.2128934000000129
 21
72.5141300000000086
 31
0.0
  0
LINE
  5
34B
100
AcDbEntity
  8
0
 62
256
370
-1
 48
1.0
  6
BYLAYER
100
AcDbLine
 10
68.2128934000000129
 20
72.5141300000000086
 30
0.0
 11
68.2128934000000129
 21
69.4150300000000016
 31
0.0
  0
LINE
  5
34C
100
AcDbEntity
  8
0
 62
256
370
-1
 48
1.0
  6
BYLAYER
100
AcDbLine
 10
68.2128934000000129
 20
69.4150300000000016
 30
0.0
 11
69.0136934000000082
 21
69.4150300000000016
 31
0.0
  0
LINE
  5
34D
100
AcDbEntity
  8
0
 62
256
370
-1
 48
1.0
  6
BYLAYER
100
AcDbLine
 10
69.0136934000000082
 20
69.4150300000000016
 30
0.0
 11
69.0136934000000082
 21
63.6150300000000044
 31
0.0
  0
LINE
  5
34E
100
AcDbEntity
  8
0
 62
256
370
-1
 48
1.0
  6
BYLAYER
100
AcDbLine
 10
69.0136934000000082
 20
63.6150300000000044
 30
0.0
 11
68.2128934000000129
 21
63.6150300000000044
 31
0.0
  0
LINE
  5
34F
100
AcDbEntity
  8
0
 62
256
370
-1
 48
1.0
  6
BYLAYER
100
AcDbLine
 10
68.2128934000000129
 20
63.6150300000000044
 30
0.0
 11
68.2128934000000129
 21
60.5144300000000044
 31
0.0
  0
LINE
  5
350
100
AcDbEntity
  8
0
 62
256
370
-1
 48
1.0
  6
BYLAYER
100
AcDbLine
 10
68.2128934000000129
 20
60.5144300000000044
 30
0.0
 11
69.0136934000000082
 21
60.5144300000000044
 31
0.0
  0
LINE
  5
351
100
AcDbEntity
  8
0
 62
256
370
-1
 48
1.0
  6
BYLAYER
100
AcDbLine
 10
69.0136934000000082
 20
60.5144300000000044
 30
0.0
 11
69.0136934000000082
 21
59.5150299999999959
 31
0.0
  0
LINE
  5
352
100
AcDbEntity
  8
0
 62
256
370
-1
 48
1.0
  6
BYLAYER
100
AcDbLine
 10
69.0136934000000082
 20
59.5150299999999959
 30
0.0
 11
83.0129934000000134
 21
59.5150299999999959
 31
0.0
  0
LINE
  5
353
100
AcDbEntity
  8
0
 62
256
370
-1
 48
1.0
  6
BYLAYER
100
AcDbLine
 10
83.0129934000000134
 20
59.5150299999999959
 30
0.0
 11
83.0129934000000134
 21
60.5144300000000044
 31
0.0
  0
LINE
  5
354
100
AcDbEntity
  8
0
 62
256
370
-1
 48
1.0
  6
BYLAYER
100
AcDbLine
 10
83.0129934000000134
 20
60.5144300000000044
 30
0.0
 11
83.8137934000000087
 21
60.5144300000000044
 31
0.0
  0
LINE
  5
355
100
AcDbEntity
  8
0
 62
256
370
-1
 48
1.0
  6
BYLAYER
100
AcDbLine
 10
83.8137934000000087
 20
60.5144300000000044
 30
0.0
 11
83.8137934000000087
 21
63.6150300000000044
 31
0.0
  0
LINE
  5
356
100
AcDbEntity
  8
0
 62
256
370
-1
 48
1.0
  6
BYLAYER
100
AcDbLine
 10
83.8137934000000087
 20
63.6150300000000044
 30
0.0
 11
83.0129934000000134
 21
63.6150300000000044
 31
0.0
  0
LINE
  5
357
100
AcDbEntity
  8
0
 62
256
370
-1
 48
1.0
  6
BYLAYER
100
AcDbLine
 10
83.0129934000000134
 20
63.6150300000000044
 30
0.0
 11
83.0129934000000134
 21
69.4150300000000016
 31
0.0
  0
LINE
  5
358
100
AcDbEntity
  8
0
 62
256
370
-1
 48
1.0
  6
BYLAYER
100
AcDbLine
 10
83.0129934000000134
 20
69.4150300000000016
 30
0.0
 11
83.8137934000000087
 21
69.4150300000000016
 31
0.0
  0
LINE
  5
359
100
AcDbEntity
  8
0
 62
256
370
-1
 48
1.0
  6
BYLAYER
100
AcDbLine
 10
83.8137934000000087
 20
69.4150300000000016
 30
0.0
 11
83.8137934000000087
 21
72.5141300000000086
 31
0.0
  0
LINE
  5
35A
100
AcDbEntity
  8
0
 62
256
370
-1
 48
1.0
  6
BYLAYER
100
AcDbLine
 10
83.8137934000000087
 20
72.5141300000000086
 30
0.0
 11
83.0129934000000134
 21
72.5141300000000086
 31
0.0
  0
LINE
  5
35B
100
AcDbEntity
  8
0
 62
256
370
-1
 48
1.0
  6
BYLAYER
100
AcDbLine
 10
83.0129934000000134
 20
72.5141300000000086
 30
0.0
 11
83.0129934000000134
 21
73.5146299999999968
 31
0.0
  0
LINE
  5
35C
100
AcDbEntity
  8
0
 62
256
370
-1
 48
1.0
  6
BYLAYER
100
AcDbLine
 10
83.0129934000000134
 20
73.5146299999999968
 30
0.0
 11
69.0136934000000082
 21
73.5146299999999968
 31
0.0
  0
LINE
  5
35D
100
AcDbEntity
  8
0
 62
256
370
-1
 48
1.0
  6
BYLAYER
100
AcDbLine
 10
88.0636934000000053
 20
73.5146299999999968
 30
0.0
 11
88.0636934000000053
 21
72.5141300000000086
 31
0.0
  0
LINE
  5
35E
100
AcDbEntity
  8
0
 62
256
370
-1
 48
1.0
  6
BYLAYER
100
AcDbLine
 10
88.0636934000000053
 20
72.5141300000000086
 30
0.0
 11
87.26289340000001
 21
72.5141300000000086
 31
0.0
  0
LINE
  5
35F
100
AcDbEntity
  8
0
 62
256
370
-1
 48
1.0
  6
BYLAYER
100
AcDbLine
 10
87.26289340000001
 20
72.5141300000000086
 30
0.0
 11
87.26289340000001
 21
69.4150300000000016
 31
0.0
  0
LINE
  5
360
100
AcDbEntity
  8
0
 62
256
370
-1
 48
1.0
  6
BYLAYER
100
AcDbLine
 10
87.26289340000001
 20
69.4150300000000016
 30
0.0
 11
88.0636934000000053
 21
69.4150300000000016
 31
0.0
  0
LINE
  5
361
100
AcDbEntity
  8
0
 62
256
370
-1
 48
1.0
  6
BYLAYER
100
AcDbLine
 10
88.0636934000000053
 20
69.4150300000000016
 30
0.0
 11
88.0636934000000053
 21
63.6150300000000044
 31
0.0
  0
LINE
  5
362
100
AcDbEntity
  8
0
 62
256
370
-1
 48
1.0
  6
BYLAYER
100
AcDbLine
 10
88.0636934000000053
 20
63.6150300000000044
 30
0.0
 11
87.26289340000001
 21
63.6150300000000044
 31
0.0
  0
LINE
  5
363
100
AcDbEntity
  8
0
 62
256
370
-1
 48
1.0
  6
BYLAYER
100
AcDbLine
 10
87.26289340000001
 20
63.6150300000000044
 30
0.0
 11
87.26289340000001
 21
60.5144300000000044
 31
0.0
  0
LINE
  5
364
100
AcDbEntity
  8
0
 62
256
370
-1
 48
1.0
  6
BYLAYER
100
AcDbLine
 10
87.26289340000001
 20
60.5144300000000044
 30
0.0
 11
88.0636934000000053
 21
60.5144300000000044
 31
0.0
  0
LINE
  5
365
100
AcDbEntity
  8
0
 62
256
370
-1
 48
1.0
  6
BYLAYER
100
AcDbLine
 10
88.0636934000000053
 20
60.5144300000000044
 30
0.0
 11
88.0636934000000053
 21
59.5150299999999959
 31
0.0
  0
LINE
  5
366
100
AcDbEntity
  8
0
 62
256
370
-1
 48
1.0
  6
BYLAYER
100
AcDbLine
 10
88.0636934000000053
 20
59.5150299999999959
 30
0.0
 11
102.0632934000000063
 21
59.5150299999999959
 31
0.0
  0
LINE
  5
367
100
AcDbEntity
  8
0
 62
256
370
-1
 48
1.0
  6
BYLAYER
100
AcDbLine
 10
102.0632934000000063
 20
59.5150299999999959
 30
0.0
 11
102.0632934000000063
 21
60.5144300000000044
 31
0.0
  0
LINE
  5
368
100
AcDbEntity
  8
0
 62
256
370
-1
 48
1.0
  6
BYLAYER
100
AcDbLine
 10
102.0632934000000063
 20
60.5144300000000044
 30
0.0
 11
102.8622934000000129
 21
60.5144300000000044
 31
0.0
  0
LINE
  5
369
100
AcDbEntity
  8
0
 62
256
370
-1
 48
1.0
  6
BYLAYER
100
AcDbLine
 10
102.8622934000000129
 20
60.5144300000000044
 30
0.0
 11
102.8622934000000129
 21
63.6150300000000044
 31
0.0
  0
LINE
  5
36A
100
AcDbEntity
  8
0
 62
256
370
-1
 48
1.0
  6
BYLAYER
100
AcDbLine
 10
102.8622934000000129
 20
63.6150300000000044
 30
0.0
 11
102.0632934000000063
 21
63.6150300000000044
 31
0.0
  0
LINE
  5
36B
100
AcDbEntity
  8
0
 62
256
370
-1
 48
1.0
  6
BYLAYER
100
AcDbLine
 10
102.0632934000000063
 20
63.6150300000000044
 30
0.0
 11
102.0632934000000063
 21
69.4150300000000016
 31
0.0
  0
LINE
  5
36C
100
AcDbEntity
  8
0
 62
256
370
-1
 48
1.0
  6
BYLAYER
100
AcDbLine
 10
102.0632934000000063
 20
69.4150300000000016
 30
0.0
 11
102.8622934000000129
 21
69.4150300000000016
 31
0.0
  0
LINE
  5
36D
100
AcDbEntity
  8
0
 62
256
370
-1
 48
1.0
  6
BYLAYER
100
AcDbLine
 10
102.8622934000000129
 20
69.4150300000000016
 30
0.0
 11
102.8622934000000129
 21
72.5141300000000086
 31
0.0
  0
LINE
  5
36E
100
AcDbEntity
  8
0
 62
256
370
-1
 48
1.0
  6
BYLAYER
100
AcDbLine
 10
102.8622934000000129
 20
72.5141300000000086
 30
0.0
 11
102.0632934000000063
 21
72.5141300000000086
 31
0.0
  0
LINE
  5
36F
100
AcDbEntity
  8
0
 62
256
370
-1
 48
1.0
  6
BYLAYER
100
AcDbLine
 10
102.0632934000000063
 20
72.5141300000000086
 30
0.0
 11
102.0632934000000063
 21
73.5146299999999968
 31
0.0
  0
LINE
  5
370
100
AcDbEntity
  8
0
 62
256
370
-1
 48
1.0
  6
BYLAYER
100
AcDbLine
 10
102.0632934000000063
 20
73.5146299999999968
 30
0.0
 11
88.0636934000000053
 21
73.5146299999999968
 31
0.0
  0
LINE
  5
371
100
AcDbEntity
  8
0
 62
256
370
-1
 48
1.0
  6
BYLAYER
100
AcDbLine
 10
107.1122934000000129
 20
73.5146299999999968
 30
0.0
 11
107.1122934000000129
 21
72.5141300000000086
 31
0.0
  0
LINE
  5
372
100
AcDbEntity
  8
0
 62
256
370
-1
 48
1.0
  6
BYLAYER
100
AcDbLine
 10
107.1122934000000129
 20
72.5141300000000086
 30
0.0
 11
106.3132934000000063
 21
72.5141300000000086
 31
0.0
  0
LINE
  5
373
100
AcDbEntity
  8
0
 62
256
370
-1
 48
1.0
  6
BYLAYER
100
AcDbLine
 10
106.3132934000000063
 20
72.5141300000000086
 30
0.0
 11
106.3132934000000063
 21
69.4150300000000016
 31
0.0
  0
LINE
  5
374
100
AcDbEntity
  8
0
 62
256
370
-1
 48
1.0
  6
BYLAYER
100
AcDbLine
 10
106.3132934000000063
 20
69.4150300000000016
 30
0.0
 11
107.1122934000000129
 21
69.4150300000000016
 31
0.0
  0
LINE
  5
375
100
AcDbEntity
  8
0
 62
256
370
-1
 48
1.0
  6
BYLAYER
100
AcDbLine
 10
107.1122934000000129
 20
69.4150300000000016
 30
0.0
 11
107.1122934000000129
 21
63.6150300000000044
 31
0.0
  0
LINE
  5
376
100
AcDbEntity
  8
0
 62
256
370
-1
 48
1.0
  6
BYLAYER
100
AcDbLine
 10
107.1122934000000129
 20
63.6150300000000044
 30
0.0
 11
106.3132934000000063
 21
63.6150300000000044
 31
0.0
  0
LINE
  5
377
100
AcDbEntity
  8
0
 62
256
370
-1
 48
1.0
  6
BYLAYER
100
AcDbLine
 10
106.3132934000000063
 20
63.6150300000000044
 30
0.0
 11
106.3132934000000063
 21
60.5144300000000044
 31
0.0
  0
LINE
  5
378
100
AcDbEntity
  8
0
 62
256
370
-1
 48
1.0
  6
BYLAYER
100
AcDbLine
 10
106.3132934000000063
 20
60.5144300000000044
 30
0.0
 11
107.1122934000000129
 21
60.5144300000000044
 31
0.0
  0
LINE
  5
379
100
AcDbEntity
  8
0
 62
256
370
-1
 48
1.0
  6
BYLAYER
100
AcDbLine
 10
107.1122934000000129
 20
60.5144300000000044
 30
0.0
 11
107.1122934000000129
 21
59.5150299999999959
 31
0.0
  0
LINE
  5
37A
100
AcDbEntity
  8
0
 62
256
370
-1
 48
1.0
  6
BYLAYER
100
AcDbLine
 10
107.1122934000000129
 20
59.5150299999999959
 30
0.0
 11
121.1132934000000034
 21
59.5150299999999959
 31
0.0
  0
LINE
  5
37B
100
AcDbEntity
  8
0
 62
256
370
-1
 48
1.0
  6
BYLAYER
100
AcDbLine
 10
121.1132934000000034
 20
59.5150299999999959
 30
0.0
 11
121.1132934000000034
 21
60.5144300000000044
 31
0.0
  0
LINE
  5
37C
100
AcDbEntity
  8
0
 62
256
370
-1
 48
1.0
  6
BYLAYER
100
AcDbLine
 10
121.1132934000000034
 20
60.5144300000000044
 30
0.0
 11
121.9132934000000148
 21
60.5144300000000044
 31
0.0
  0
LINE
  5
37D
100
AcDbEntity
  8
0
 62
256
370
-1
 48
1.0
  6
BYLAYER
100
AcDbLine
 10
121.9132934000000148
 20
60.5144300000000044
 30
0.0
 11
121.9132934000000148
 21
63.6150300000000044
 31
0.0
  0
LINE
  5
37E
100
AcDbEntity
  8
0
 62
256
370
-1
 48
1.0
  6
BYLAYER
100
AcDbLine
 10
121.9132934000000148
 20
63.6150300000000044
 30
0.0
 11
121.1132934000000034
 21
63.6150300000000044
 31
0.0
  0
LINE
  5
37F
100
AcDbEntity
  8
0
 62
256
370
-1
 48
1.0
  6
BYLAYER
100
AcDbLine
 10
121.1132934000000034
 20
63.6150300000000044
 30
0.0
 11
121.1132934000000034
 21
69.4150300000000016
 31
0.0
  0
LINE
  5
380
100
AcDbEntity
  8
0
 62
256
370
-1
 48
1.0
  6
BYLAYER
100
AcDbLine
 10
121.1132934000000034
 20
69.4150300000000016
 30
0.0
 11
121.9132934000000148
 21
69.4150300000000016
 31
0.0
  0
LINE
  5
381
100
AcDbEntity
  8
0
 62
256
370
-1
 48
1.0
  6
BYLAYER
100
AcDbLine
 10
121.9132934000000148
 20
69.4150300000000016
 30
0.0
 11
121.9132934000000148
 21
72.5141300000000086
 31
0.0
  0
LINE
  5
382
100
AcDbEntity
  8
0
 62
256
370
-1
 48
1.0
  6
BYLAYER
100
AcDbLine
 10
121.9132934000000148
 20
72.5141300000000086
 30
0.0
 11
121.1132934000000034
 21
72.5141300000000086
 31
0.0
  0
LINE
  5
383
100
AcDbEntity
  8
0
 62
256
370
-1
 48
1.0
  6
BYLAYER
100
AcDbLine
 10
121.1132934000000034
 20
72.5141300000000086
 30
0.0
 11
121.1132934000000034
 21
73.5146299999999968
 31
0.0
  0
LINE
  5
384
100
AcDbEntity
  8
0
 62
256
370
-1
 48
1.0
  6
BYLAYER
100
AcDbLine
 10
121.1132934000000034
 20
73.5146299999999968
 30
0.0
 11
107.1122934000000129
 21
73.5146299999999968
 31
0.0
  0
LINE
  5
385
100
AcDbEntity
  8
0
 62
256
370
-1
 48
1.0
  6
BYLAYER
100
AcDbLine
 10
126.1632934000000148
 20
73.5146299999999968
 30
0.0
 11
126.1632934000000148
 21
72.5141300000000086
 31
0.0
  0
LINE
  5
386
100
AcDbEntity
  8
0
 62
256
370
-1
 48
1.0
  6
BYLAYER
100
AcDbLine
 10
126.1632934000000148
 20
72.5141300000000086
 30
0.0
 11
125.3632934000000034
 21
72.5141300000000086
 31
0.0
  0
LINE
  5
387
100
AcDbEntity
  8
0
 62
256
370
-1
 48
1.0
  6
BYLAYER
100
AcDbLine
 10
125.3632934000000034
 20
72.5141300000000086
 30
0.0
 11
125.3632934000000034
 21
69.4150300000000016
 31
0.0
  0
LINE
  5
388
100
AcDbEntity
  8
0
 62
256
370
-1
 48
1.0
  6
BYLAYER
100
AcDbLine
 10
125.3632934000000034
 20
69.4150300000000016
 30
0.0
 11
126.1632934000000148
 21
69.4150300000000016
 31
0.0
  0
LINE
  5
389
100
AcDbEntity
  8
0
 62
256
370
-1
 48
1.0
  6
BYLAYER
100
AcDbLine
 10
126.1632934000000148
 20
69.4150300000000016
 30
0.0
 11
126.1632934000000148
 21
63.6150300000000044
 31
0.0
  0
LINE
  5
38A
100
AcDbEntity
  8
0
 62
256
370
-1
 48
1.0
  6
BYLAYER
100
AcDbLine
 10
126.1632934000000148
 20
63.6150300000000044
 30
0.0
 11
125.3632934000000034
 21
63.6150300000000044
 31
0.0
  0
LINE
  5
38B
100
AcDbEntity
  8
0
 62
256
370
-1
 48
1.0
  6
BYLAYER
100
AcDbLine
 10
125.3632934000000034
 20
63.6150300000000044
 30
0.0
 11
125.3632934000000034
 21
60.5144300000000044
 31
0.0
  0
LINE
  5
38C
100
AcDbEntity
  8
0
 62
256
370
-1
 48
1.0
  6
BYLAYER
100
AcDbLine
 10
125.3632934000000034
 20
60.5144300000000044
 30
0.0
 11
126.1632934000000148
 21
60.5144300000000044
 31
0.0
  0
LINE
  5
38D
100
AcDbEntity
  8
0
 62
256
370
-1
 48
1.0
  6
BYLAYER
100
AcDbLine
 10
126.1632934000000148
 20
60.5144300000000044
 30
0.0
 11
126.1632934000000148
 21
59.5150299999999959
 31
0.0
  0
LINE
  5
38E
100
AcDbEntity
  8
0
 62
256
370
-1
 48
1.0
  6
BYLAYER
100
AcDbLine
 10
126.1632934000000148
 20
59.5150299999999959
 30
0.0
 11
140.1632934000000148
 21
59.5150299999999959
 31
0.0
  0
LINE
  5
38F
100
AcDbEntity
  8
0
 62
256
370
-1
 48
1.0
  6
BYLAYER
100
AcDbLine
 10
140.1632934000000148
 20
59.5150299999999959
 30
0.0
 11
140.1632934000000148
 21
60.5144300000000044
 31
0.0
  0
LINE
  5
390
100
AcDbEntity
  8
0
 62
256
370
-1
 48
1.0
  6
BYLAYER
100
AcDbLine
 10
140.1632934000000148
 20
60.5144300000000044
 30
0.0
 11
140.9622934000000214
 21
60.5144300000000044
 31
0.0
  0
LINE
  5
391
100
AcDbEntity
  8
0
 62
256
370
-1
 48
1.0
  6
BYLAYER
100
AcDbLine
 10
140.9622934000000214
 20
60.5144300000000044
 30
0.0
 11
140.9622934000000214
 21
63.6150300000000044
 31
0.0
  0
LINE
  5
392
100
AcDbEntity
  8
0
 62
256
370
-1
 48
1.0
  6
BYLAYER
100
AcDbLine
 10
140.9622934000000214
 20
63.6150300000000044
 30
0.0
 11
140.1632934000000148
 21
63.6150300000000044
 31
0.0
  0
LINE
  5
393
100
AcDbEntity
  8
0
 62
256
370
-1
 48
1.0
  6
BYLAYER
100
AcDbLine
 10
140.1632934000000148
 20
63.6150300000000044
 30
0.0
 11
140.1632934000000148
 21
69.4150300000000016
 31
0.0
  0
LINE
  5
394
100
AcDbEntity
  8
0
 62
256
370
-1
 48
1.0
  6
BYLAYER
100
AcDbLine
 10
140.1632934000000148
 20
69.4150300000000016
 30
0.0
 11
140.9622934000000214
 21
69.4150300000000016
 31
0.0
  0
LINE
  5
395
100
AcDbEntity
  8
0
 62
256
370
-1
 48
1.0
  6
BYLAYER
100
AcDbLine
 10
140.9622934000000214
 20
69.4150300000000016
 30
0.0
 11
140.9622934000000214
 21
72.5141300000000086
 31
0.0
  0
LINE
  5
396
100
AcDbEntity
  8
0
 62
256
370
-1
 48
1.0
  6
BYLAYER
100
AcDbLine
 10
140.9622934000000214
 20
72.5141300000000086
 30
0.0
 11
140.1632934000000148
 21
72.5141300000000086
 31
0.0
  0
LINE
  5
397
100
AcDbEntity
  8
0
 62
256
370
-1
 48
1.0
  6
BYLAYER
100
AcDbLine
 10
140.1632934000000148
 20
72.5141300000000086
 30
0.0
 11
140.1632934000000148
 21
73.5146299999999968
 31
0.0
  0
LINE
  5
398
100
AcDbEntity
  8
0
 62
256
370
-1
 48
1.0
  6
BYLAYER
100
AcDbLine
 10
140.1632934000000148
 20
73.5146299999999968
 30
0.0
 11
126.1632934000000148
 21
73.5146299999999968
 31
0.0
  0
LINE
  5
399
100
AcDbEntity
  8
0
 62
256
370
-1
 48
1.0
  6
BYLAYER
100
AcDbLine
 10
145.2122934000000214
 20
73.5146299999999968
 30
0.0
 11
145.2122934000000214
 21
72.5141300000000086
 31
0.0
  0
LINE
  5
39A
100
AcDbEntity
  8
0
 62
256
370
-1
 48
1.0
  6
BYLAYER
100
AcDbLine
 10
145.2122934000000214
 20
72.5141300000000086
 30
0.0
 11
144.4132934000000148
 21
72.5141300000000086
 31
0.0
  0
LINE
  5
39B
100
AcDbEntity
  8
0
 62
256
370
-1
 48
1.0
  6
BYLAYER
100
AcDbLine
 10
144.4132934000000148
 20
72.5141300000000086
 30
0.0
 11
144.4132934000000148
 21
69.4150300000000016
 31
0.0
  0
LINE
  5
39C
100
AcDbEntity
  8
0
 62
256
370
-1
 48
1.0
  6
BYLAYER
100
AcDbLine
 10
144.4132934000000148
 20
69.4150300000000016
 30
0.0
 11
145.2122934000000214
 21
69.4150300000000016
 31
0.0
  0
LINE
  5
39D
100
AcDbEntity
  8
0
 62
256
370
-1
 48
1.0
  6
BYLAYER
100
AcDbLine
 10
145.2122934000000214
 20
69.4150300000000016
 30
0.0
 11
145.2122934000000214
 21
63.6150300000000044
 31
0.0
  0
LINE
  5
39E
100
AcDbEntity
  8
0
 62
256
370
-1
 48
1.0
  6
BYLAYER
100
AcDbLine
 10
145.2122934000000214
 20
63.6150300000000044
 30
0.0
 11
144.4132934000000148
 21
63.6150300000000044
 31
0.0
  0
LINE
  5
39F
100
AcDbEntity
  8
0
 62
256
370
-1
 48
1.0
  6
BYLAYER
100
AcDbLine
 10
144.4132934000000148
 20
63.6150300000000044
 30
0.0
 11
144.4132934000000148
 21
60.5144300000000044
 31
0.0
  0
LINE
  5
3A0
100
AcDbEntity
  8
0
 62
256
370
-1
 48
1.0
  6
BYLAYER
100
AcDbLine
 10
144.4132934000000148
 20
60.5144300000000044
 30
0.0
 11
145.2122934000000214
 21
60.5144300000000044
 31
0.0
  0
LINE
  5
3A1
100
AcDbEntity
  8
0
 62
256
370
-1
 48
1.0
  6
BYLAYER
100
AcDbLine
 10
145.2122934000000214
 20
60.5144300000000044
 30
0.0
 11
145.2122934000000214
 21
59.5150299999999959
 31
0.0
  0
LINE
  5
3A2
100
AcDbEntity
  8
0
 62
256
370
-1
 48
1.0
  6
BYLAYER
100
AcDbLine
 10
145.2122934000000214
 20
59.5150299999999959
 30
0.0
 11
159.2132933999999977
 21
59.5150299999999959
 31
0.0
  0
LINE
  5
3A3
100
AcDbEntity
  8
0
 62
256
370
-1
 48
1.0
  6
BYLAYER
100
AcDbLine
 10
159.2132933999999977
 20
59.5150299999999959
 30
0.0
 11
159.2132933999999977
 21
60.5144300000000044
 31
0.0
  0
LINE
  5
3A4
100
AcDbEntity
  8
0
 62
256
370
-1
 48
1.0
  6
BYLAYER
100
AcDbLine
 10
159.2132933999999977
 20
60.5144300000000044
 30
0.0
 11
160.0132934000000091
 21
60.5144300000000044
 31
0.0
  0
LINE
  5
3A5
100
AcDbEntity
  8
0
 62
256
370
-1
 48
1.0
  6
BYLAYER
100
AcDbLine
 10
160.0132934000000091
 20
60.5144300000000044
 30
0.0
 11
160.0132934000000091
 21
63.6150300000000044
 31
0.0
  0
LINE
  5
3A6
100
AcDbEntity
  8
0
 62
256
370
-1
 48
1.0
  6
BYLAYER
100
AcDbLine
 10
160.0132934000000091
 20
63.6150300000000044
 30
0.0
 11
159.2132933999999977
 21
63.6150300000000044
 31
0.0
  0
LINE
  5
3A7
100
AcDbEntity
  8
0
 62
256
370
-1
 48
1.0
  6
BYLAYER
100
AcDbLine
 10
159.2132933999999977
 20
63.6150300000000044
 30
0.0
 11
159.2132933999999977
 21
69.4150300000000016
 31
0.0
  0
LINE
  5
3A8
100
AcDbEntity
  8
0
 62
256
370
-1
 48
1.0
  6
BYLAYER
100
AcDbLine
 10
159.2132933999999977
 20
69.4150300000000016
 30
0.0
 11
160.0132934000000091
 21
69.4150300000000016
 31
0.0
  0
LINE
  5
3A9
100
AcDbEntity
  8
0
 62
256
370
-1
 48
1.0
  6
BYLAYER
100
AcDbLine
 10
160.0132934000000091
 20
69.4150300000000016
 30
0.0
 11
160.0132934000000091
 21
72.5141300000000086
 31
0.0
  0
LINE
  5
3AA
100
AcDbEntity
  8
0
 62
256
370
-1
 48
1.0
  6
BYLAYER
100
AcDbLine
 10
160.0132934000000091
 20
72.5141300000000086
 30
0.0
 11
159.2132933999999977
 21
72.5141300000000086
 31
0.0
  0
LINE
  5
3AB
100
AcDbEntity
  8
0
 62
256
370
-1
 48
1.0
  6
BYLAYER
100
AcDbLine
 10
159.2132933999999977
 20
72.5141300000000086
 30
0.0
 11
159.2132933999999977
 21
73.5146299999999968
 31
0.0
  0
LINE
  5
3AC
100
AcDbEntity
  8
0
 62
256
370
-1
 48
1.0
  6
BYLAYER
100
AcDbLine
 10
159.2132933999999977
 20
73.5146299999999968
 30
0.0
 11
145.2122934000000214
 21
73.5146299999999968
 31
0.0
  0
LINE
  5
3AD
100
AcDbEntity
  8
0
 62
256
370
-1
 48
1.0
  6
BYLAYER
100
AcDbLine
 10
164.2632934000000091
 20
73.5146299999999968
 30
0.0
 11
164.2632934000000091
 21
72.5141300000000086
 31
0.0
  0
LINE
  5
3AE
100
AcDbEntity
  8
0
 62
256
370
-1
 48
1.0
  6
BYLAYER
100
AcDbLine
 10
164.2632934000000091
 20
72.5141300000000086
 30
0.0
 11
163.4632933999999977
 21
72.5141300000000086
 31
0.0
  0
LINE
  5
3AF
100
AcDbEntity
  8
0
 62
256
370
-1
 48
1.0
  6
BYLAYER
100
AcDbLine
 10
163.4632933999999977
 20
72.5141300000000086
 30
0.0
 11
163.4632933999999977
 21
69.4150300000000016
 31
0.0
  0
LINE
  5
3B0
100
AcDbEntity
  8
0
 62
256
370
-1
 48
1.0
  6
BYLAYER
100
AcDbLine
 10
163.4632933999999977
 20
69.4150300000000016
 30
0.0
 11
164.2632934000000091
 21
69.4150300000000016
 31
0.0
  0
LINE
  5
3B1
100
AcDbEntity
  8
0
 62
256
370
-1
 48
1.0
  6
BYLAYER
100
AcDbLine
 10
164.2632934000000091
 20
69.4150300000000016
 30
0.0
 11
164.2632934000000091
 21
63.6150300000000044
 31
0.0
  0
LINE
  5
3B2
100
AcDbEntity
  8
0
 62
256
370
-1
 48
1.0
  6
BYLAYER
100
AcDbLine
 10
164.2632934000000091
 20
63.6150300000000044
 30
0.0
 11
163.4632933999999977
 21
63.6150300000000044
 31
0.0
  0
LINE
  5
3B3
100
AcDbEntity
  8
0
 62
256
370
-1
 48
1.0
  6
BYLAYER
100
AcDbLine
 10
163.4632933999999977
 20
63.6150300000000044
 30
0.0
 11
163.4632933999999977
 21
60.5144300000000044
 31
0.0
  0
LINE
  5
3B4
100
AcDbEntity
  8
0
 62
256
370
-1
 48
1.0
  6
BYLAYER
100
AcDbLine
 10
163.4632933999999977
 20
60.5144300000000044
 30
0.0
 11
164.2632934000000091
 21
60.5144300000000044
 31
0.0
  0
LINE
  5
3B5
100
AcDbEntity
  8
0
 62
256
370
-1
 48
1.0
  6
BYLAYER
100
AcDbLine
 10
164.2632934000000091
 20
60.5144300000000044
 30
0.0
 11
164.2632934000000091
 21
59.5150299999999959
 31
0.0
  0
LINE
  5
3B6
100
AcDbEntity
  8
0
 62
256
370
-1
 48
1.0
  6
BYLAYER
100
AcDbLine
 10
164.2632934000000091
 20
59.5150299999999959
 30
0.0
 11
178.2632934000000091
 21
59.5150299999999959
 31
0.0
  0
LINE
  5
3B7
100
AcDbEntity
  8
0
 62
256
370
-1
 48
1.0
  6
BYLAYER
100
AcDbLine
 10
178.2632934000000091
 20
59.5150299999999959
 30
0.0
 11
178.2632934000000091
 21
60.5144300000000044
 31
0.0
  0
LINE
  5
3B8
100
AcDbEntity
  8
0
 62
256
370
-1
 48
1.0
  6
BYLAYER
100
AcDbLine
 10
178.2632934000000091
 20
60.5144300000000044
 30
0.0
 11
179.0632934000000205
 21
60.5144300000000044
 31
0.0
  0
LINE
  5
3B9
100
AcDbEntity
  8
0
 62
256
370
-1
 48
1.0
  6
BYLAYER
100
AcDbLine
 10
179.0632934000000205
 20
60.5144300000000044
 30
0.0
 11
179.0632934000000205
 21
63.6150300000000044
 31
0.0
  0
LINE
  5
3BA
100
AcDbEntity
  8
0
 62
256
370
-1
 48
1.0
  6
BYLAYER
100
AcDbLine
 10
179.0632934000000205
 20
63.6150300000000044
 30
0.0
 11
178.2632934000000091
 21
63.6150300000000044
 31
0.0
  0
LINE
  5
3BB
100
AcDbEntity
  8
0
 62
256
370
-1
 48
1.0
  6
BYLAYER
100
AcDbLine
 10
178.2632934000000091
 20
63.6150300000000044
 30
0.0
 11
178.2632934000000091
 21
69.4150300000000016
 31
0.0
  0
LINE
  5
3BC
100
AcDbEntity
  8
0
 62
256
370
-1
 48
1.0
  6
BYLAYER
100
AcDbLine
 10
178.2632934000000091
 20
69.4150300000000016
 30
0.0
 11
179.0632934000000205
 21
69.4150300000000016
 31
0.0
  0
LINE
  5
3BD
100
AcDbEntity
  8
0
 62
256
370
-1
 48
1.0
  6
BYLAYER
100
AcDbLine
 10
179.0632934000000205
 20
69.4150300000000016
 30
0.0
 11
179.0632934000000205
 21
72.5141300000000086
 31
0.0
  0
LINE
  5
3BE
100
AcDbEntity
  8
0
 62
256
370
-1
 48
1.0
  6
BYLAYER
100
AcDbLine
 10
179.0632934000000205
 20
72.5141300000000086
 30
0.0
 11
178.2632934000000091
 21
72.5141300000000086
 31
0.0
  0
LINE
  5
3BF
100
AcDbEntity
  8
0
 62
256
370
-1
 48
1.0
  6
BYLAYER
100
AcDbLine
 10
178.2632934000000091
 20
72.5141300000000086
 30
0.0
 11
178.2632934000000091
 21
73.5146299999999968
 31
0.0
  0
LINE
  5
3C0
100
AcDbEntity
  8
0
 62
256
370
-1
 48
1.0
  6
BYLAYER
100
AcDbLine
 10
178.2632934000000091
 20
73.5146299999999968
 30
0.0
 11
164.2632934000000091
 21
73.5146299999999968
 31
0.0
  0
LINE
  5
3C1
100
AcDbEntity
  8
0
 62
256
370
-1
 48
1.0
  6
BYLAYER
100
AcDbLine
 10
183.3132934000000205
 20
73.5146299999999968
 30
0.0
 11
183.3132934000000205
 21
72.5141300000000086
 31
0.0
  0
LINE
  5
3C2
100
AcDbEntity
  8
0
 62
256
370
-1
 48
1.0
  6
BYLAYER
100
AcDbLine
 10
183.3132934000000205
 20
72.5141300000000086
 30
0.0
 11
182.5132934000000091
 21
72.5141300000000086
 31
0.0
  0
LINE
  5
3C3
100
AcDbEntity
  8
0
 62
256
370
-1
 48
1.0
  6
BYLAYER
100
AcDbLine
 10
182.5132934000000091
 20
72.5141300000000086
 30
0.0
 11
182.5132934000000091
 21
69.4150300000000016
 31
0.0
  0
LINE
  5
3C4
100
AcDbEntity
  8
0
 62
256
370
-1
 48
1.0
  6
BYLAYER
100
AcDbLine
 10
182.5132934000000091
 20
69.4150300000000016
 30
0.0
 11
183.3132934000000205
 21
69.4150300000000016
 31
0.0
  0
LINE
  5
3C5
100
AcDbEntity
  8
0
 62
256
370
-1
 48
1.0
  6
BYLAYER
100
AcDbLine
 10
183.3132934000000205
 20
69.4150300000000016
 30
0.0
 11
183.3132934000000205
 21
63.6150300000000044
 31
0.0
  0
LINE
  5
3C6
100
AcDbEntity
  8
0
 62
256
370
-1
 48
1.0
  6
BYLAYER
100
AcDbLine
 10
183.3132934000000205
 20
63.6150300000000044
 30
0.0
 11
182.5132934000000091
 21
63.6150300000000044
 31
0.0
  0
LINE
  5
3C7
100
AcDbEntity
  8
0
 62
256
370
-1
 48
1.0
  6
BYLAYER
100
AcDbLine
 10
182.5132934000000091
 20
63.6150300000000044
 30
0.0
 11
182.5132934000000091
 21
60.5144300000000044
 31
0.0
  0
LINE
  5
3C8
100
AcDbEntity
  8
0
 62
256
370
-1
 48
1.0
  6
BYLAYER
100
AcDbLine
 10
182.5132934000000091
 20
60.5144300000000044
 30
0.0
 11
183.3132934000000205
 21
60.5144300000000044
 31
0.0
  0
LINE
  5
3C9
100
AcDbEntity
  8
0
 62
256
370
-1
 48
1.0
  6
BYLAYER
100
AcDbLine
 10
183.3132934000000205
 20
60.5144300000000044
 30
0.0
 11
183.3132934000000205
 21
59.5150299999999959
 31
0.0
  0
LINE
  5
3CA
100
AcDbEntity
  8
0
 62
256
370
-1
 48
1.0
  6
BYLAYER
100
AcDbLine
 10
183.3132934000000205
 20
59.5150299999999959
 30
0.0
 11
197.3132934000000205
 21
59.5150299999999959
 31
0.0
  0
LINE
  5
3CB
100
AcDbEntity
  8
0
 62
256
370
-1
 48
1.0
  6
BYLAYER
100
AcDbLine
 10
197.3132934000000205
 20
59.5150299999999959
 30
0.0
 11
197.3132934000000205
 21
60.5144300000000044
 31
0.0
  0
LINE
  5
3CC
100
AcDbEntity
  8
0
 62
256
370
-1
 48
1.0
  6
BYLAYER
100
AcDbLine
 10
197.3132934000000205
 20
60.5144300000000044
 30
0.0
 11
198.1122933999999987
 21
60.5144300000000044
 31
0.0
  0
LINE
  5
3CD
100
AcDbEntity
  8
0
 62
256
370
-1
 48
1.0
  6
BYLAYER
100
AcDbLine
 10
198.1122933999999987
 20
60.5144300000000044
 30
0.0
 11
198.1122933999999987
 21
63.6150300000000044
 31
0.0
  0
LINE
  5
3CE
100
AcDbEntity
  8
0
 62
256
370
-1
 48
1.0
  6
BYLAYER
100
AcDbLine
 10
198.1122933999999987
 20
63.6150300000000044
 30
0.0
 11
197.3132934000000205
 21
63.6150300000000044
 31
0.0
  0
LINE
  5
3CF
100
AcDbEntity
  8
0
 62
256
370
-1
 48
1.0
  6
BYLAYER
100
AcDbLine
 10
197.3132934000000205
 20
63.6150300000000044
 30
0.0
 11
197.3132934000000205
 21
69.4150300000000016
 31
0.0
  0
LINE
  5
3D0
100
AcDbEntity
  8
0
 62
256
370
-1
 48
1.0
  6
BYLAYER
100
AcDbLine
 10
197.3132934000000205
 20
69.4150300000000016
 30
0.0
 11
198.1122933999999987
 21
69.4150300000000016
 31
0.0
  0
LINE
  5
3D1
100
AcDbEntity
  8
0
 62
256
370
-1
 48
1.0
  6
BYLAYER
100
AcDbLine
 10
198.1122933999999987
 20
69.4150300000000016
 30
0.0
 11
198.1122933999999987
 21
72.5141300000000086
 31
0.0
  0
LINE
  5
3D2
100
AcDbEntity
  8
0
 62
256
370
-1
 48
1.0
  6
BYLAYER
100
AcDbLine
 10
198.1122933999999987
 20
72.5141300000000086
 30
0.0
 11
197.3132934000000205
 21
72.5141300000000086
 31
0.0
  0
LINE
  5
3D3
100
AcDbEntity
  8
0
 62
256
370
-1
 48
1.0
  6
BYLAYER
100
AcDbLine
 10
197.3132934000000205
 20
72.5141300000000086
 30
0.0
 11
197.3132934000000205
 21
73.5146299999999968
 31
0.0
  0
LINE
  5
3D4
100
AcDbEntity
  8
0
 62
256
370
-1
 48
1.0
  6
BYLAYER
100
AcDbLine
 10
197.3132934000000205
 20
73.5146299999999968
 30
0.0
 11
183.3132934000000205
 21
73.5146299999999968
 31
0.0
  0
LINE
  5
3D5
100
AcDbEntity
  8
0
 62
256
370
-1
 48
1.0
  6
BYLAYER
100
AcDbLine
 10
202.3622933999999987
 20
73.5146299999999968
 30
0.0
 11
202.3622933999999987
 21
72.5141300000000086
 31
0.0
  0
LINE
  5
3D6
100
AcDbEntity
  8
0
 62
256
370
-1
 48
1.0
  6
BYLAYER
100
AcDbLine
 10
202.3622933999999987
 20
72.5141300000000086
 30
0.0
 11
201.5632934000000205
 21
72.5141300000000086
 31
0.0
  0
LINE
  5
3D7
100
AcDbEntity
  8
0
 62
256
370
-1
 48
1.0
  6
BYLAYER
100
AcDbLine
 10
201.5632934000000205
 20
72.5141300000000086
 30
0.0
 11
201.5632934000000205
 21
69.4150300000000016
 31
0.0
  0
LINE
  5
3D8
100
AcDbEntity
  8
0
 62
256
370
-1
 48
1.0
  6
BYLAYER
100
AcDbLine
 10
201.5632934000000205
 20
69.4150300000000016
 30
0.0
 11
202.3622933999999987
 21
69.4150300000000016
 31
0.0
  0
LINE
  5
3D9
100
AcDbEntity
  8
0
 62
256
370
-1
 48
1.0
  6
BYLAYER
100
AcDbLine
 10
202.3622933999999987
 20
69.4150300000000016
 30
0.0
 11
202.3622933999999987
 21
63.6150300000000044
 31
0.0
  0
LINE
  5
3DA
100
AcDbEntity
  8
0
 62
256
370
-1
 48
1.0
  6
BYLAYER
100
AcDbLine
 10
202.3622933999999987
 20
63.6150300000000044
 30
0.0
 11
201.5632934000000205
 21
63.6150300000000044
 31
0.0
  0
LINE
  5
3DB
100
AcDbEntity
  8
0
 62
256
370
-1
 48
1.0
  6
BYLAYER
100
AcDbLine
 10
201.5632934000000205
 20
63.6150300000000044
 30
0.0
 11
201.5632934000000205
 21
60.5144300000000044
 31
0.0
  0
LINE
  5
3DC
100
AcDbEntity
  8
0
 62
256
370
-1
 48
1.0
  6
BYLAYER
100
AcDbLine
 10
201.5632934000000205
 20
60.5144300000000044
 30
0.0
 11
202.3622933999999987
 21
60.5144300000000044
 31
0.0
  0
LINE
  5
3DD
100
AcDbEntity
  8
0
 62
256
370
-1
 48
1.0
  6
BYLAYER
100
AcDbLine
 10
202.3622933999999987
 20
60.5144300000000044
 30
0.0
 11
202.3622933999999987
 21
59.5150299999999959
 31
0.0
  0
LINE
  5
3DE
100
AcDbEntity
  8
0
 62
256
370
-1
 48
1.0
  6
BYLAYER
100
AcDbLine
 10
202.3622933999999987
 20
59.5150299999999959
 30
0.0
 11
216.3632934000000034
 21
59.5150299999999959
 31
0.0
  0
LINE
  5
3DF
100
AcDbEntity
  8
0
 62
256
370
-1
 48
1.0
  6
BYLAYER
100
AcDbLine
 10
216.3632934000000034
 20
59.5150299999999959
 30
0.0
 11
216.3632934000000034
 21
60.5144300000000044
 31
0.0
  0
LINE
  5
3E0
100
AcDbEntity
  8
0
 62
256
370
-1
 48
1.0
  6
BYLAYER
100
AcDbLine
 10
216.3632934000000034
 20
60.5144300000000044
 30
0.0
 11
217.1632934000000148
 21
60.5144300000000044
 31
0.0
  0
LINE
  5
3E1
100
AcDbEntity
  8
0
 62
256
370
-1
 48
1.0
  6
BYLAYER
100
AcDbLine
 10
217.1632934000000148
 20
60.5144300000000044
 30
0.0
 11
217.1632934000000148
 21
63.6150300000000044
 31
0.0
  0
LINE
  5
3E2
100
AcDbEntity
  8
0
 62
256
370
-1
 48
1.0
  6
BYLAYER
100
AcDbLine
 10
217.1632934000000148
 20
63.6150300000000044
 30
0.0
 11
216.3632934000000034
 21
63.6150300000000044
 31
0.0
  0
LINE
  5
3E3
100
AcDbEntity
  8
0
 62
256
370
-1
 48
1.0
  6
BYLAYER
100
AcDbLine
 10
216.3632934000000034
 20
63.6150300000000044
 30
0.0
 11
216.3632934000000034
 21
69.4150300000000016
 31
0.0
  0
LINE
  5
3E4
100
AcDbEntity
  8
0
 62
256
370
-1
 48
1.0
  6
BYLAYER
100
AcDbLine
 10
216.3632934000000034
 20
69.4150300000000016
 30
0.0
 11
217.1632934000000148
 21
69.4150300000000016
 31
0.0
  0
LINE
  5
3E5
100
AcDbEntity
  8
0
 62
256
370
-1
 48
1.0
  6
BYLAYER
100
AcDbLine
 10
217.1632934000000148
 20
69.4150300000000016
 30
0.0
 11
217.1632934000000148
 21
72.5141300000000086
 31
0.0
  0
LINE
  5
3E6
100
AcDbEntity
  8
0
 62
256
370
-1
 48
1.0
  6
BYLAYER
100
AcDbLine
 10
217.1632934000000148
 20
72.5141300000000086
 30
0.0
 11
216.3632934000000034
 21
72.5141300000000086
 31
0.0
  0
LINE
  5
3E7
100
AcDbEntity
  8
0
 62
256
370
-1
 48
1.0
  6
BYLAYER
100
AcDbLine
 10
216.3632934000000034
 20
72.5141300000000086
 30
0.0
 11
216.3632934000000034
 21
73.5146299999999968
 31
0.0
  0
LINE
  5
3E8
100
AcDbEntity
  8
0
 62
256
370
-1
 48
1.0
  6
BYLAYER
100
AcDbLine
 10
216.3632934000000034
 20
73.5146299999999968
 30
0.0
 11
202.3622933999999987
 21
73.5146299999999968
 31
0.0
  0
LINE
  5
3E9
100
AcDbEntity
  8
0
 62
256
370
-1
 48
1.0
  6
BYLAYER
100
AcDbLine
 10
221.4132934000000148
 20
73.5146299999999968
 30
0.0
 11
221.4132934000000148
 21
72.5141300000000086
 31
0.0
  0
LINE
  5
3EA
100
AcDbEntity
  8
0
 62
256
370
-1
 48
1.0
  6
BYLAYER
100
AcDbLine
 10
221.4132934000000148
 20
72.5141300000000086
 30
0.0
 11
220.6132934000000034
 21
72.5141300000000086
 31
0.0
  0
LINE
  5
3EB
100
AcDbEntity
  8
0
 62
256
370
-1
 48
1.0
  6
BYLAYER
100
AcDbLine
 10
220.6132934000000034
 20
72.5141300000000086
 30
0.0
 11
220.6132934000000034
 21
69.4150300000000016
 31
0.0
  0
LINE
  5
3EC
100
AcDbEntity
  8
0
 62
256
370
-1
 48
1.0
  6
BYLAYER
100
AcDbLine
 10
220.6132934000000034
 20
69.4150300000000016
 30
0.0
 11
221.4132934000000148
 21
69.4150300000000016
 31
0.0
  0
LINE
  5
3ED
100
AcDbEntity
  8
0
 62
256
370
-1
 48
1.0
  6
BYLAYER
100
AcDbLine
 10
221.4132934000000148
 20
69.4150300000000016
 30
0.0
 11
221.4132934000000148
 21
63.6150300000000044
 31
0.0
  0
LINE
  5
3EE
100
AcDbEntity
  8
0
 62
256
370
-1
 48
1.0
  6
BYLAYER
100
AcDbLine
 10
221.4132934000000148
 20
63.6150300000000044
 30
0.0
 11
220.6132934000000034
 21
63.6150300000000044
 31
0.0
  0
LINE
  5
3EF
100
AcDbEntity
  8
0
 62
256
370
-1
 48
1.0
  6
BYLAYER
100
AcDbLine
 10
220.6132934000000034
 20
63.6150300000000044
 30
0.0
 11
220.6132934000000034
 21
60.5144300000000044
 31
0.0
  0
LINE
  5
3F0
100
AcDbEntity
  8
0
 62
256
370
-1
 48
1.0
  6
BYLAYER
100
AcDbLine
 10
220.6132934000000034
 20
60.5144300000000044
 30
0.0
 11
221.4132934000000148
 21
60.5144300000000044
 31
0.0
  0
LINE
  5
3F1
100
AcDbEntity
  8
0
 62
256
370
-1
 48
1.0
  6
BYLAYER
100
AcDbLine
 10
221.4132934000000148
 20
60.5144300000000044
 30
0.0
 11
221.4132934000000148
 21
59.5150299999999959
 31
0.0
  0
LINE
  5
3F2
100
AcDbEntity
  8
0
 62
256
370
-1
 48
1.0
  6
BYLAYER
100
AcDbLine
 10
221.4132934000000148
 20
59.5150299999999959
 30
0.0
 11
235.4132934000000148
 21
59.5150299999999959
 31
0.0
  0
LINE
  5
3F3
100
AcDbEntity
  8
0
 62
256
370
-1
 48
1.0
  6
BYLAYER
100
AcDbLine
 10
235.4132934000000148
 20
59.5150299999999959
 30
0.0
 11
235.4132934000000148
 21
60.5144300000000044
 31
0.0
  0
LINE
  5
3F4
100
AcDbEntity
  8
0
 62
256
370
-1
 48
1.0
  6
BYLAYER
100
AcDbLine
 10
235.4132934000000148
 20
60.5144300000000044
 30
0.0
 11
236.2122934000000214
 21
60.5144300000000044
 31
0.0
  0
LINE
  5
3F5
100
AcDbEntity
  8
0
 62
256
370
-1
 48
1.0
  6
BYLAYER
100
AcDbLine
 10
236.2122934000000214
 20
60.5144300000000044
 30
0.0
 11
236.2122934000000214
 21
63.6150300000000044
 31
0.0
  0
LINE
  5
3F6
100
AcDbEntity
  8
0
 62
256
370
-1
 48
1.0
  6
BYLAYER
100
AcDbLine
 10
236.2122934000000214
 20
63.6150300000000044
 30
0.0
 11
235.4132934000000148
 21
63.6150300000000044
 31
0.0
  0
LINE
  5
3F7
100
AcDbEntity
  8
0
 62
256
370
-1
 48
1.0
  6
BYLAYER
100
AcDbLine
 10
235.4132934000000148
 20
63.6150300000000044
 30
0.0
 11
235.4132934000000148
 21
69.4150300000000016
 31
0.0
  0
LINE
  5
3F8
100
AcDbEntity
  8
0
 62
256
370
-1
 48
1.0
  6
BYLAYER
100
AcDbLine
 10
235.4132934000000148
 20
69.4150300000000016
 30
0.0
 11
236.2122934000000214
 21
69.4150300000000016
 31
0.0
  0
LINE
  5
3F9
100
AcDbEntity
  8
0
 62
256
370
-1
 48
1.0
  6
BYLAYER
100
AcDbLine
 10
236.2122934000000214
 20
69.4150300000000016
 30
0.0
 11
236.2122934000000214
 21
72.5141300000000086
 31
0.0
  0
LINE
  5
3FA
100
AcDbEntity
  8
0
 62
256
370
-1
 48
1.0
  6
BYLAYER
100
AcDbLine
 10
236.2122934000000214
 20
72.5141300000000086
 30
0.0
 11
235.4132934000000148
 21
72.5141300000000086
 31
0.0
  0
LINE
  5
3FB
100
AcDbEntity
  8
0
 62
256
370
-1
 48
1.0
  6
BYLAYER
100
AcDbLine
 10
235.4132934000000148
 20
72.5141300000000086
 30
0.0
 11
235.4132934000000148
 21
73.5146299999999968
 31
0.0
  0
LINE
  5
3FC
100
AcDbEntity
  8
0
 62
256
370
-1
 48
1.0
  6
BYLAYER
100
AcDbLine
 10
235.4132934000000148
 20
73.5146299999999968
 30
0.0
 11
221.4132934000000148
 21
73.5146299999999968
 31
0.0
  0
LINE
  5
3FD
100
AcDbEntity
  8
0
 62
256
370
-1
 48
1.0
  6
BYLAYER
100
AcDbLine
 10
240.4622934000000214
 20
73.5146299999999968
 30
0.0
 11
240.4622934000000214
 21
72.5141300000000086
 31
0.0
  0
LINE
  5
3FE
100
AcDbEntity
  8
0
 62
256
370
-1
 48
1.0
  6
BYLAYER
100
AcDbLine
 10
240.4622934000000214
 20
72.5141300000000086
 30
0.0
 11
239.6632934000000148
 21
72.5141300000000086
 31
0.0
  0
LINE
  5
3FF
100
AcDbEntity
  8
0
 62
256
370
-1
 48
1.0
  6
BYLAYER
100
AcDbLine
 10
239.6632934000000148
 20
72.5141300000000086
 30
0.0
 11
239.6632934000000148
 21
69.4150300000000016
 31
0.0
  0
LINE
  5
400
100
AcDbEntity
  8
0
 62
256
370
-1
 48
1.0
  6
BYLAYER
100
AcDbLine
 10
239.6632934000000148
 20
69.4150300000000016
 30
0.0
 11
240.4622934000000214
 21
69.4150300000000016
 31
0.0
  0
LINE
  5
401
100
AcDbEntity
  8
0
 62
256
370
-1
 48
1.0
  6
BYLAYER
100
AcDbLine
 10
240.4622934000000214
 20
69.4150300000000016
 30
0.0
 11
240.4622934000000214
 21
63.6150300000000044
 31
0.0
  0
LINE
  5
402
100
AcDbEntity
  8
0
 62
256
370
-1
 48
1.0
  6
BYLAYER
100
AcDbLine
 10
240.4622934000000214
 20
63.6150300000000044
 30
0.0
 11
239.6632934000000148
 21
63.6150300000000044
 31
0.0
  0
LINE
  5
403
100
AcDbEntity
  8
0
 62
256
370
-1
 48
1.0
  6
BYLAYER
100
AcDbLine
 10
239.6632934000000148
 20
63.6150300000000044
 30
0.0
 11
239.6632934000000148
 21
60.5144300000000044
 31
0.0
  0
LINE
  5
404
100
AcDbEntity
  8
0
 62
256
370
-1
 48
1.0
  6
BYLAYER
100
AcDbLine
 10
239.6632934000000148
 20
60.5144300000000044
 30
0.0
 11
240.4622934000000214
 21
60.5144300000000044
 31
0.0
  0
LINE
  5
405
100
AcDbEntity
  8
0
 62
256
370
-1
 48
1.0
  6
BYLAYER
100
AcDbLine
 10
240.4622934000000214
 20
60.5144300000000044
 30
0.0
 11
240.4622934000000214
 21
59.5150299999999959
 31
0.0
  0
LINE
  5
406
100
AcDbEntity
  8
0
 62
256
370
-1
 48
1.0
  6
BYLAYER
100
AcDbLine
 10
240.4622934000000214
 20
59.5150299999999959
 30
0.0
 11
254.4632933999999977
 21
59.5150299999999959
 31
0.0
  0
LINE
  5
407
100
AcDbEntity
  8
0
 62
256
370
-1
 48
1.0
  6
BYLAYER
100
AcDbLine
 10
254.4632933999999977
 20
59.5150299999999959
 30
0.0
 11
254.4632933999999977
 21
60.5144300000000044
 31
0.0
  0
LINE
  5
408
100
AcDbEntity
  8
0
 62
256
370
-1
 48
1.0
  6
BYLAYER
100
AcDbLine
 10
254.4632933999999977
 20
60.5144300000000044
 30
0.0
 11
255.2622934000000043
 21
60.5144300000000044
 31
0.0
  0
LINE
  5
409
100
AcDbEntity
  8
0
 62
256
370
-1
 48
1.0
  6
BYLAYER
100
AcDbLine
 10
255.2622934000000043
 20
60.5144300000000044
 30
0.0
 11
255.2622934000000043
 21
63.6150300000000044
 31
0.0
  0
LINE
  5
40A
100
AcDbEntity
  8
0
 62
256
370
-1
 48
1.0
  6
BYLAYER
100
AcDbLine
 10
255.2622934000000043
 20
63.6150300000000044
 30
0.0
 11
254.4632933999999977
 21
63.6150300000000044
 31
0.0
  0
LINE
  5
40B
100
AcDbEntity
  8
0
 62
256
370
-1
 48
1.0
  6
BYLAYER
100
AcDbLine
 10
254.4632933999999977
 20
63.6150300000000044
 30
0.0
 11
254.4632933999999977
 21
69.4150300000000016
 31
0.0
  0
LINE
  5
40C
100
AcDbEntity
  8
0
 62
256
370
-1
 48
1.0
  6
BYLAYER
100
AcDbLine
 10
254.4632933999999977
 20
69.4150300000000016
 30
0.0
 11
255.2622934000000043
 21
69.4150300000000016
 31
0.0
  0
LINE
  5
40D
100
AcDbEntity
  8
0
 62
256
370
-1
 48
1.0
  6
BYLAYER
100
AcDbLine
 10
255.2622934000000043
 20
69.4150300000000016
 30
0.0
 11
255.2622934000000043
 21
72.5141300000000086
 31
0.0
  0
LINE
  5
40E
100
AcDbEntity
  8
0
 62
256
370
-1
 48
1.0
  6
BYLAYER
100
AcDbLine
 10
255.2622934000000043
 20
72.5141300000000086
 30
0.0
 11
254.4632933999999977
 21
72.5141300000000086
 31
0.0
  0
LINE
  5
40F
100
AcDbEntity
  8
0
 62
256
370
-1
 48
1.0
  6
BYLAYER
100
AcDbLine
 10
254.4632933999999977
 20
72.5141300000000086
 30
0.0
 11
254.4632933999999977
 21
73.5146299999999968
 31
0.0
  0
LINE
  5
410
100
AcDbEntity
  8
0
 62
256
370
-1
 48
1.0
  6
BYLAYER
100
AcDbLine
 10
254.4632933999999977
 20
73.5146299999999968
 30
0.0
 11
240.4622934000000214
 21
73.5146299999999968
 31
0.0
  0
LINE
  5
411
100
AcDbEntity
  8
0
 62
256
370
-1
 48
1.0
  6
BYLAYER
100
AcDbLine
 10
264.2762933999999859
 20
73.5146299999999968
 30
0.0
 11
264.2762933999999859
 21
72.5141300000000086
 31
0.0
  0
LINE
  5
412
100
AcDbEntity
  8
0
 62
256
370
-1
 48
1.0
  6
BYLAYER
100
AcDbLine
 10
264.2762933999999859
 20
72.5141300000000086
 30
0.0
 11
263.475293400000055
 21
72.5141300000000086
 31
0.0
  0
LINE
  5
413
100
AcDbEntity
  8
0
 62
256
370
-1
 48
1.0
  6
BYLAYER
100
AcDbLine
 10
263.475293400000055
 20
72.5141300000000086
 30
0.0
 11
263.475293400000055
 21
69.4150300000000016
 31
0.0
  0
LINE
  5
414
100
AcDbEntity
  8
0
 62
256
370
-1
 48
1.0
  6
BYLAYER
100
AcDbLine
 10
263.475293400000055
 20
69.4150300000000016
 30
0.0
 11
264.2762933999999859
 21
69.4150300000000016
 31
0.0
  0
LINE
  5
415
100
AcDbEntity
  8
0
 62
256
370
-1
 48
1.0
  6
BYLAYER
100
AcDbLine
 10
264.2762933999999859
 20
69.4150300000000016
 30
0.0
 11
264.2762933999999859
 21
63.6150300000000044
 31
0.0
  0
LINE
  5
416
100
AcDbEntity
  8
0
 62
256
370
-1
 48
1.0
  6
BYLAYER
100
AcDbLine
 10
264.2762933999999859
 20
63.6150300000000044
 30
0.0
 11
263.475293400000055
 21
63.6150300000000044
 31
0.0
  0
LINE
  5
417
100
AcDbEntity
  8
0
 62
256
370
-1
 48
1.0
  6
BYLAYER
100
AcDbLine
 10
263.475293400000055
 20
63.6150300000000044
 30
0.0
 11
263.475293400000055
 21
60.5144300000000044
 31
0.0
  0
LINE
  5
418
100
AcDbEntity
  8
0
 62
256
370
-1
 48
1.0
  6
BYLAYER
100
AcDbLine
 10
263.475293400000055
 20
60.5144300000000044
 30
0.0
 11
264.2762933999999859
 21
60.5144300000000044
 31
0.0
  0
LINE
  5
419
100
AcDbEntity
  8
0
 62
256
370
-1
 48
1.0
  6
BYLAYER
100
AcDbLine
 10
264.2762933999999859
 20
60.5144300000000044
 30
0.0
 11
264.2762933999999859
 21
59.5150299999999959
 31
0.0
  0
LINE
  5
41A
100
AcDbEntity
  8
0
 62
256
370
-1
 48
1.0
  6
BYLAYER
100
AcDbLine
 10
264.2762933999999859
 20
59.5150299999999959
 30
0.0
 11
278.2752934000000096
 21
59.5150299999999959
 31
0.0
  0
LINE
  5
41B
100
AcDbEntity
  8
0
 62
256
370
-1
 48
1.0
  6
BYLAYER
100
AcDbLine
 10
278.2752934000000096
 20
59.5150299999999959
 30
0.0
 11
278.2752934000000096
 21
60.5144300000000044
 31
0.0
  0
LINE
  5
41C
100
AcDbEntity
  8
0
 62
256
370
-1
 48
1.0
  6
BYLAYER
100
AcDbLine
 10
278.2752934000000096
 20
60.5144300000000044
 30
0.0
 11
279.0762934000000541
 21
60.5144300000000044
 31
0.0
  0
LINE
  5
41D
100
AcDbEntity
  8
0
 62
256
370
-1
 48
1.0
  6
BYLAYER
100
AcDbLine
 10
279.0762934000000541
 20
60.5144300000000044
 30
0.0
 11
279.0762934000000541
 21
63.6150300000000044
 31
0.0
  0
LINE
  5
41E
100
AcDbEntity
  8
0
 62
256
370
-1
 48
1.0
  6
BYLAYER
100
AcDbLine
 10
279.0762934000000541
 20
63.6150300000000044
 30
0.0
 11
278.2752934000000096
 21
63.6150300000000044
 31
0.0
  0
LINE
  5
41F
100
AcDbEntity
  8
0
 62
256
370
-1
 48
1.0
  6
BYLAYER
100
AcDbLine
 10
278.2752934000000096
 20
63.6150300000000044
 30
0.0
 11
278.2752934000000096
 21
69.4150300000000016
 31
0.0
  0
LINE
  5
420
100
AcDbEntity
  8
0
 62
256
370
-1
 48
1.0
  6
BYLAYER
100
AcDbLine
 10
278.2752934000000096
 20
69.4150300000000016
 30
0.0
 11
279.0762934000000541
 21
69.4150300000000016
 31
0.0
  0
LINE
  5
421
100
AcDbEntity
  8
0
 62
256
370
-1
 48
1.0
  6
BYLAYER
100
AcDbLine
 10
279.0762934000000541
 20
69.4150300000000016
 30
0.0
 11
279.0762934000000541
 21
72.5141300000000086
 31
0.0
  0
LINE
  5
422
100
AcDbEntity
  8
0
 62
256
370
-1
 48
1.0
  6
BYLAYER
100
AcDbLine
 10
279.0762934000000541
 20
72.5141300000000086
 30
0.0
 11
278.2752934000000096
 21
72.5141300000000086
 31
0.0
  0
LINE
  5
423
100
AcDbEntity
  8
0
 62
256
370
-1
 48
1.0
  6
BYLAYER
100
AcDbLine
 10
278.2752934000000096
 20
72.5141300000000086
 30
0.0
 11
278.2752934000000096
 21
73.5146299999999968
 31
0.0
  0
LINE
  5
424
100
AcDbEntity
  8
0
 62
256
370
-1
 48
1.0
  6
BYLAYER
100
AcDbLine
 10
278.2752934000000096
 20
73.5146299999999968
 30
0.0
 11
264.2762933999999859
 21
73.5146299999999968
 31
0.0
  0
LINE
  5
425
100
AcDbEntity
  8
0
 62
256
370
-1
 48
1.0
  6
BYLAYER
100
AcDbLine
 10
2.3385334000000171
 20
92.5646300000000082
 30
0.0
 11
2.3385334000000171
 21
91.5641300000000058
 31
0.0
  0
LINE
  5
426
100
AcDbEntity
  8
0
 62
256
370
-1
 48
1.0
  6
BYLAYER
100
AcDbLine
 10
2.3385334000000171
 20
91.5641300000000058
 30
0.0
 11
1.5378934000000015
 21
91.5641300000000058
 31
0.0
  0
LINE
  5
427
100
AcDbEntity
  8
0
 62
256
370
-1
 48
1.0
  6
BYLAYER
100
AcDbLine
 10
1.5378934000000015
 20
91.5641300000000058
 30
0.0
 11
1.5378934000000015
 21
88.4650299999999987
 31
0.0
  0
LINE
  5
428
100
AcDbEntity
  8
0
 62
256
370
-1
 48
1.0
  6
BYLAYER
100
AcDbLine
 10
1.5378934000000015
 20
88.4650299999999987
 30
0.0
 11
2.3385334000000171
 21
88.4650299999999987
 31
0.0
  0
LINE
  5
429
100
AcDbEntity
  8
0
 62
256
370
-1
 48
1.0
  6
BYLAYER
100
AcDbLine
 10
2.3385334000000171
 20
88.4650299999999987
 30
0.0
 11
2.3385334000000171
 21
82.6650300000000016
 31
0.0
  0
LINE
  5
42A
100
AcDbEntity
  8
0
 62
256
370
-1
 48
1.0
  6
BYLAYER
100
AcDbLine
 10
2.3385334000000171
 20
82.6650300000000016
 30
0.0
 11
1.5378934000000015
 21
82.6650300000000016
 31
0.0
  0
LINE
  5
42B
100
AcDbEntity
  8
0
 62
256
370
-1
 48
1.0
  6
BYLAYER
100
AcDbLine
 10
1.5378934000000015
 20
82.6650300000000016
 30
0.0
 11
1.5378934000000015
 21
79.5644300000000015
 31
0.0
  0
LINE
  5
42C
100
AcDbEntity
  8
0
 62
256
370
-1
 48
1.0
  6
BYLAYER
100
AcDbLine
 10
1.5378934000000015
 20
79.5644300000000015
 30
0.0
 11
2.3385334000000171
 21
79.5644300000000015
 31
0.0
  0
LINE
  5
42D
100
AcDbEntity
  8
0
 62
256
370
-1
 48
1.0
  6
BYLAYER
100
AcDbLine
 10
2.3385334000000171
 20
79.5644300000000015
 30
0.0
 11
2.3385334000000171
 21
78.5650300000000072
 31
0.0
  0
LINE
  5
42E
100
AcDbEntity
  8
0
 62
256
370
-1
 48
1.0
  6
BYLAYER
100
AcDbLine
 10
2.3385334000000171
 20
78.5650300000000072
 30
0.0
 11
16.3379934000000162
 21
78.5650300000000072
 31
0.0
  0
LINE
  5
42F
100
AcDbEntity
  8
0
 62
256
370
-1
 48
1.0
  6
BYLAYER
100
AcDbLine
 10
16.3379934000000162
 20
78.5650300000000072
 30
0.0
 11
16.3379934000000162
 21
79.5644300000000015
 31
0.0
  0
LINE
  5
430
100
AcDbEntity
  8
0
 62
256
370
-1
 48
1.0
  6
BYLAYER
100
AcDbLine
 10
16.3379934000000162
 20
79.5644300000000015
 30
0.0
 11
17.1386934000000082
 21
79.5644300000000015
 31
0.0
  0
LINE
  5
431
100
AcDbEntity
  8
0
 62
256
370
-1
 48
1.0
  6
BYLAYER
100
AcDbLine
 10
17.1386934000000082
 20
79.5644300000000015
 30
0.0
 11
17.1386934000000082
 21
82.6650300000000016
 31
0.0
  0
LINE
  5
432
100
AcDbEntity
  8
0
 62
256
370
-1
 48
1.0
  6
BYLAYER
100
AcDbLine
 10
17.1386934000000082
 20
82.6650300000000016
 30
0.0
 11
16.3379934000000162
 21
82.6650300000000016
 31
0.0
  0
LINE
  5
433
100
AcDbEntity
  8
0
 62
256
370
-1
 48
1.0
  6
BYLAYER
100
AcDbLine
 10
16.3379934000000162
 20
82.6650300000000016
 30
0.0
 11
16.3379934000000162
 21
88.4650299999999987
 31
0.0
  0
LINE
  5
434
100
AcDbEntity
  8
0
 62
256
370
-1
 48
1.0
  6
BYLAYER
100
AcDbLine
 10
16.3379934000000162
 20
88.4650299999999987
 30
0.0
 11
17.1386934000000082
 21
88.4650299999999987
 31
0.0
  0
LINE
  5
435
100
AcDbEntity
  8
0
 62
256
370
-1
 48
1.0
  6
BYLAYER
100
AcDbLine
 10
17.1386934000000082
 20
88.4650299999999987
 30
0.0
 11
17.1386934000000082
 21
91.5641300000000058
 31
0.0
  0
LINE
  5
436
100
AcDbEntity
  8
0
 62
256
370
-1
 48
1.0
  6
BYLAYER
100
AcDbLine
 10
17.1386934000000082
 20
91.5641300000000058
 30
0.0
 11
16.3379934000000162
 21
91.5641300000000058
 31
0.0
  0
LINE
  5
437
100
AcDbEntity
  8
0
 62
256
370
-1
 48
1.0
  6
BYLAYER
100
AcDbLine
 10
16.3379934000000162
 20
91.5641300000000058
 30
0.0
 11
16.3379934000000162
 21
92.5646300000000082
 31
0.0
  0
LINE
  5
438
100
AcDbEntity
  8
0
 62
256
370
-1
 48
1.0
  6
BYLAYER
100
AcDbLine
 10
16.3379934000000162
 20
92.5646300000000082
 30
0.0
 11
2.3385334000000171
 21
92.5646300000000082
 31
0.0
  0
LINE
  5
439
100
AcDbEntity
  8
0
 62
256
370
-1
 48
1.0
  6
BYLAYER
100
AcDbLine
 10
21.3884934000000158
 20
92.5646300000000082
 30
0.0
 11
21.3884934000000158
 21
91.5641300000000058
 31
0.0
  0
LINE
  5
43A
100
AcDbEntity
  8
0
 62
256
370
-1
 48
1.0
  6
BYLAYER
100
AcDbLine
 10
21.3884934000000158
 20
91.5641300000000058
 30
0.0
 11
20.5878934000000129
 21
91.5641300000000058
 31
0.0
  0
LINE
  5
43B
100
AcDbEntity
  8
0
 62
256
370
-1
 48
1.0
  6
BYLAYER
100
AcDbLine
 10
20.5878934000000129
 20
91.5641300000000058
 30
0.0
 11
20.5878934000000129
 21
88.4650299999999987
 31
0.0
  0
LINE
  5
43C
100
AcDbEntity
  8
0
 62
256
370
-1
 48
1.0
  6
BYLAYER
100
AcDbLine
 10
20.5878934000000129
 20
88.4650299999999987
 30
0.0
 11
21.3884934000000158
 21
88.4650299999999987
 31
0.0
  0
LINE
  5
43D
100
AcDbEntity
  8
0
 62
256
370
-1
 48
1.0
  6
BYLAYER
100
AcDbLine
 10
21.3884934000000158
 20
88.4650299999999987
 30
0.0
 11
21.3884934000000158
 21
82.6650300000000016
 31
0.0
  0
LINE
  5
43E
100
AcDbEntity
  8
0
 62
256
370
-1
 48
1.0
  6
BYLAYER
100
AcDbLine
 10
21.3884934000000158
 20
82.6650300000000016
 30
0.0
 11
20.5878934000000129
 21
82.6650300000000016
 31
0.0
  0
LINE
  5
43F
100
AcDbEntity
  8
0
 62
256
370
-1
 48
1.0
  6
BYLAYER
100
AcDbLine
 10
20.5878934000000129
 20
82.6650300000000016
 30
0.0
 11
20.5878934000000129
 21
79.5644300000000015
 31
0.0
  0
LINE
  5
440
100
AcDbEntity
  8
0
 62
256
370
-1
 48
1.0
  6
BYLAYER
100
AcDbLine
 10
20.5878934000000129
 20
79.5644300000000015
 30
0.0
 11
21.3884934000000158
 21
79.5644300000000015
 31
0.0
  0
LINE
  5
441
100
AcDbEntity
  8
0
 62
256
370
-1
 48
1.0
  6
BYLAYER
100
AcDbLine
 10
21.3884934000000158
 20
79.5644300000000015
 30
0.0
 11
21.3884934000000158
 21
78.5650300000000072
 31
0.0
  0
LINE
  5
442
100
AcDbEntity
  8
0
 62
256
370
-1
 48
1.0
  6
BYLAYER
100
AcDbLine
 10
21.3884934000000158
 20
78.5650300000000072
 30
0.0
 11
35.3879933999999992
 21
78.5650300000000072
 31
0.0
  0
LINE
  5
443
100
AcDbEntity
  8
0
 62
256
370
-1
 48
1.0
  6
BYLAYER
100
AcDbLine
 10
35.3879933999999992
 20
78.5650300000000072
 30
0.0
 11
35.3879933999999992
 21
79.5644300000000015
 31
0.0
  0
LINE
  5
444
100
AcDbEntity
  8
0
 62
256
370
-1
 48
1.0
  6
BYLAYER
100
AcDbLine
 10
35.3879933999999992
 20
79.5644300000000015
 30
0.0
 11
36.1887934000000087
 21
79.5644300000000015
 31
0.0
  0
LINE
  5
445
100
AcDbEntity
  8
0
 62
256
370
-1
 48
1.0
  6
BYLAYER
100
AcDbLine
 10
36.1887934000000087
 20
79.5644300000000015
 30
0.0
 11
36.1887934000000087
 21
82.6650300000000016
 31
0.0
  0
LINE
  5
446
100
AcDbEntity
  8
0
 62
256
370
-1
 48
1.0
  6
BYLAYER
100
AcDbLine
 10
36.1887934000000087
 20
82.6650300000000016
 30
0.0
 11
35.3879933999999992
 21
82.6650300000000016
 31
0.0
  0
LINE
  5
447
100
AcDbEntity
  8
0
 62
256
370
-1
 48
1.0
  6
BYLAYER
100
AcDbLine
 10
35.3879933999999992
 20
82.6650300000000016
 30
0.0
 11
35.3879933999999992
 21
88.4650299999999987
 31
0.0
  0
LINE
  5
448
100
AcDbEntity
  8
0
 62
256
370
-1
 48
1.0
  6
BYLAYER
100
AcDbLine
 10
35.3879933999999992
 20
88.4650299999999987
 30
0.0
 11
36.1887934000000087
 21
88.4650299999999987
 31
0.0
  0
LINE
  5
449
100
AcDbEntity
  8
0
 62
256
370
-1
 48
1.0
  6
BYLAYER
100
AcDbLine
 10
36.1887934000000087
 20
88.4650299999999987
 30
0.0
 11
36.1887934000000087
 21
91.5641300000000058
 31
0.0
  0
LINE
  5
44A
100
AcDbEntity
  8
0
 62
256
370
-1
 48
1.0
  6
BYLAYER
100
AcDbLine
 10
36.1887934000000087
 20
91.5641300000000058
 30
0.0
 11
35.3879933999999992
 21
91.5641300000000058
 31
0.0
  0
LINE
  5
44B
100
AcDbEntity
  8
0
 62
256
370
-1
 48
1.0
  6
BYLAYER
100
AcDbLine
 10
35.3879933999999992
 20
91.5641300000000058
 30
0.0
 11
35.3879933999999992
 21
92.5646300000000082
 31
0.0
  0
LINE
  5
44C
100
AcDbEntity
  8
0
 62
256
370
-1
 48
1.0
  6
BYLAYER
100
AcDbLine
 10
35.3879933999999992
 20
92.5646300000000082
 30
0.0
 11
21.3884934000000158
 21
92.5646300000000082
 31
0.0
  0
LINE
  5
44D
100
AcDbEntity
  8
0
 62
256
370
-1
 48
1.0
  6
BYLAYER
100
AcDbLine
 10
40.4386934000000053
 20
92.5646300000000082
 30
0.0
 11
40.4386934000000053
 21
91.5641300000000058
 31
0.0
  0
LINE
  5
44E
100
AcDbEntity
  8
0
 62
256
370
-1
 48
1.0
  6
BYLAYER
100
AcDbLine
 10
40.4386934000000053
 20
91.5641300000000058
 30
0.0
 11
39.63789340000001
 21
91.5641300000000058
 31
0.0
  0
LINE
  5
44F
100
AcDbEntity
  8
0
 62
256
370
-1
 48
1.0
  6
BYLAYER
100
AcDbLine
 10
39.63789340000001
 20
91.5641300000000058
 30
0.0
 11
39.63789340000001
 21
88.4650299999999987
 31
0.0
  0
LINE
  5
450
100
AcDbEntity
  8
0
 62
256
370
-1
 48
1.0
  6
BYLAYER
100
AcDbLine
 10
39.63789340000001
 20
88.4650299999999987
 30
0.0
 11
40.4386934000000053
 21
88.4650299999999987
 31
0.0
  0
LINE
  5
451
100
AcDbEntity
  8
0
 62
256
370
-1
 48
1.0
  6
BYLAYER
100
AcDbLine
 10
40.4386934000000053
 20
88.4650299999999987
 30
0.0
 11
40.4386934000000053
 21
82.6650300000000016
 31
0.0
  0
LINE
  5
452
100
AcDbEntity
  8
0
 62
256
370
-1
 48
1.0
  6
BYLAYER
100
AcDbLine
 10
40.4386934000000053
 20
82.6650300000000016
 30
0.0
 11
39.63789340000001
 21
82.6650300000000016
 31
0.0
  0
LINE
  5
453
100
AcDbEntity
  8
0
 62
256
370
-1
 48
1.0
  6
BYLAYER
100
AcDbLine
 10
39.63789340000001
 20
82.6650300000000016
 30
0.0
 11
39.63789340000001
 21
79.5644300000000015
 31
0.0
  0
LINE
  5
454
100
AcDbEntity
  8
0
 62
256
370
-1
 48
1.0
  6
BYLAYER
100
AcDbLine
 10
39.63789340000001
 20
79.5644300000000015
 30
0.0
 11
40.4386934000000053
 21
79.5644300000000015
 31
0.0
  0
LINE
  5
455
100
AcDbEntity
  8
0
 62
256
370
-1
 48
1.0
  6
BYLAYER
100
AcDbLine
 10
40.4386934000000053
 20
79.5644300000000015
 30
0.0
 11
40.4386934000000053
 21
78.5650300000000072
 31
0.0
  0
LINE
  5
456
100
AcDbEntity
  8
0
 62
256
370
-1
 48
1.0
  6
BYLAYER
100
AcDbLine
 10
40.4386934000000053
 20
78.5650300000000072
 30
0.0
 11
54.4379934000000105
 21
78.5650300000000072
 31
0.0
  0
LINE
  5
457
100
AcDbEntity
  8
0
 62
256
370
-1
 48
1.0
  6
BYLAYER
100
AcDbLine
 10
54.4379934000000105
 20
78.5650300000000072
 30
0.0
 11
54.4379934000000105
 21
79.5644300000000015
 31
0.0
  0
LINE
  5
458
100
AcDbEntity
  8
0
 62
256
370
-1
 48
1.0
  6
BYLAYER
100
AcDbLine
 10
54.4379934000000105
 20
79.5644300000000015
 30
0.0
 11
55.237393400000002
 21
79.5644300000000015
 31
0.0
  0
LINE
  5
459
100
AcDbEntity
  8
0
 62
256
370
-1
 48
1.0
  6
BYLAYER
100
AcDbLine
 10
55.237393400000002
 20
79.5644300000000015
 30
0.0
 11
55.237393400000002
 21
82.6650300000000016
 31
0.0
  0
LINE
  5
45A
100
AcDbEntity
  8
0
 62
256
370
-1
 48
1.0
  6
BYLAYER
100
AcDbLine
 10
55.237393400000002
 20
82.6650300000000016
 30
0.0
 11
54.4379934000000105
 21
82.6650300000000016
 31
0.0
  0
LINE
  5
45B
100
AcDbEntity
  8
0
 62
256
370
-1
 48
1.0
  6
BYLAYER
100
AcDbLine
 10
54.4379934000000105
 20
82.6650300000000016
 30
0.0
 11
54.4379934000000105
 21
88.4650299999999987
 31
0.0
  0
LINE
  5
45C
100
AcDbEntity
  8
0
 62
256
370
-1
 48
1.0
  6
BYLAYER
100
AcDbLine
 10
54.4379934000000105
 20
88.4650299999999987
 30
0.0
 11
55.237393400000002
 21
88.4650299999999987
 31
0.0
  0
LINE
  5
45D
100
AcDbEntity
  8
0
 62
256
370
-1
 48
1.0
  6
BYLAYER
100
AcDbLine
 10
55.237393400000002
 20
88.4650299999999987
 30
0.0
 11
55.237393400000002
 21
91.5641300000000058
 31
0.0
  0
LINE
  5
45E
100
AcDbEntity
  8
0
 62
256
370
-1
 48
1.0
  6
BYLAYER
100
AcDbLine
 10
55.237393400000002
 20
91.5641300000000058
 30
0.0
 11
54.4379934000000105
 21
91.5641300000000058
 31
0.0
  0
LINE
  5
45F
100
AcDbEntity
  8
0
 62
256
370
-1
 48
1.0
  6
BYLAYER
100
AcDbLine
 10
54.4379934000000105
 20
91.5641300000000058
 30
0.0
 11
54.4379934000000105
 21
92.5646300000000082
 31
0.0
  0
LINE
  5
460
100
AcDbEntity
  8
0
 62
256
370
-1
 48
1.0
  6
BYLAYER
100
AcDbLine
 10
54.4379934000000105
 20
92.5646300000000082
 30
0.0
 11
40.4386934000000053
 21
92.5646300000000082
 31
0.0
  0
LINE
  5
461
100
AcDbEntity
  8
0
 62
256
370
-1
 48
1.0
  6
BYLAYER
100
AcDbLine
 10
59.4872934000000129
 20
92.5646300000000082
 30
0.0
 11
59.4872934000000129
 21
91.5641300000000058
 31
0.0
  0
LINE
  5
462
100
AcDbEntity
  8
0
 62
256
370
-1
 48
1.0
  6
BYLAYER
100
AcDbLine
 10
59.4872934000000129
 20
91.5641300000000058
 30
0.0
 11
58.6878934000000072
 21
91.5641300000000058
 31
0.0
  0
LINE
  5
463
100
AcDbEntity
  8
0
 62
256
370
-1
 48
1.0
  6
BYLAYER
100
AcDbLine
 10
58.6878934000000072
 20
91.5641300000000058
 30
0.0
 11
58.6878934000000072
 21
88.4650299999999987
 31
0.0
  0
LINE
  5
464
100
AcDbEntity
  8
0
 62
256
370
-1
 48
1.0
  6
BYLAYER
100
AcDbLine
 10
58.6878934000000072
 20
88.4650299999999987
 30
0.0
 11
59.4872934000000129
 21
88.4650299999999987
 31
0.0
  0
LINE
  5
465
100
AcDbEntity
  8
0
 62
256
370
-1
 48
1.0
  6
BYLAYER
100
AcDbLine
 10
59.4872934000000129
 20
88.4650299999999987
 30
0.0
 11
59.4872934000000129
 21
82.6650300000000016
 31
0.0
  0
LINE
  5
466
100
AcDbEntity
  8
0
 62
256
370
-1
 48
1.0
  6
BYLAYER
100
AcDbLine
 10
59.4872934000000129
 20
82.6650300000000016
 30
0.0
 11
58.6878934000000072
 21
82.6650300000000016
 31
0.0
  0
LINE
  5
467
100
AcDbEntity
  8
0
 62
256
370
-1
 48
1.0
  6
BYLAYER
100
AcDbLine
 10
58.6878934000000072
 20
82.6650300000000016
 30
0.0
 11
58.6878934000000072
 21
79.5644300000000015
 31
0.0
  0
LINE
  5
468
100
AcDbEntity
  8
0
 62
256
370
-1
 48
1.0
  6
BYLAYER
100
AcDbLine
 10
58.6878934000000072
 20
79.5644300000000015
 30
0.0
 11
59.4872934000000129
 21
79.5644300000000015
 31
0.0
  0
LINE
  5
469
100
AcDbEntity
  8
0
 62
256
370
-1
 48
1.0
  6
BYLAYER
100
AcDbLine
 10
59.4872934000000129
 20
79.5644300000000015
 30
0.0
 11
59.4872934000000129
 21
78.5650300000000072
 31
0.0
  0
LINE
  5
46A
100
AcDbEntity
  8
0
 62
256
370
-1
 48
1.0
  6
BYLAYER
100
AcDbLine
 10
59.4872934000000129
 20
78.5650300000000072
 30
0.0
 11
73.4879934000000077
 21
78.5650300000000072
 31
0.0
  0
LINE
  5
46B
100
AcDbEntity
  8
0
 62
256
370
-1
 48
1.0
  6
BYLAYER
100
AcDbLine
 10
73.4879934000000077
 20
78.5650300000000072
 30
0.0
 11
73.4879934000000077
 21
79.5644300000000015
 31
0.0
  0
LINE
  5
46C
100
AcDbEntity
  8
0
 62
256
370
-1
 48
1.0
  6
BYLAYER
100
AcDbLine
 10
73.4879934000000077
 20
79.5644300000000015
 30
0.0
 11
74.288793400000003
 21
79.5644300000000015
 31
0.0
  0
LINE
  5
46D
100
AcDbEntity
  8
0
 62
256
370
-1
 48
1.0
  6
BYLAYER
100
AcDbLine
 10
74.288793400000003
 20
79.5644300000000015
 30
0.0
 11
74.288793400000003
 21
82.6650300000000016
 31
0.0
  0
LINE
  5
46E
100
AcDbEntity
  8
0
 62
256
370
-1
 48
1.0
  6
BYLAYER
100
AcDbLine
 10
74.288793400000003
 20
82.6650300000000016
 30
0.0
 11
73.4879934000000077
 21
82.6650300000000016
 31
0.0
  0
LINE
  5
46F
100
AcDbEntity
  8
0
 62
256
370
-1
 48
1.0
  6
BYLAYER
100
AcDbLine
 10
73.4879934000000077
 20
82.6650300000000016
 30
0.0
 11
73.4879934000000077
 21
88.4650299999999987
 31
0.0
  0
LINE
  5
470
100
AcDbEntity
  8
0
 62
256
370
-1
 48
1.0
  6
BYLAYER
100
AcDbLine
 10
73.4879934000000077
 20
88.4650299999999987
 30
0.0
 11
74.288793400000003
 21
88.4650299999999987
 31
0.0
  0
LINE
  5
471
100
AcDbEntity
  8
0
 62
256
370
-1
 48
1.0
  6
BYLAYER
100
AcDbLine
 10
74.288793400000003
 20
88.4650299999999987
 30
0.0
 11
74.288793400000003
 21
91.5641300000000058
 31
0.0
  0
LINE
  5
472
100
AcDbEntity
  8
0
 62
256
370
-1
 48
1.0
  6
BYLAYER
100
AcDbLine
 10
74.288793400000003
 20
91.5641300000000058
 30
0.0
 11
73.4879934000000077
 21
91.5641300000000058
 31
0.0
  0
LINE
  5
473
100
AcDbEntity
  8
0
 62
256
370
-1
 48
1.0
  6
BYLAYER
100
AcDbLine
 10
73.4879934000000077
 20
91.5641300000000058
 30
0.0
 11
73.4879934000000077
 21
92.5646300000000082
 31
0.0
  0
LINE
  5
474
100
AcDbEntity
  8
0
 62
256
370
-1
 48
1.0
  6
BYLAYER
100
AcDbLine
 10
73.4879934000000077
 20
92.5646300000000082
 30
0.0
 11
59.4872934000000129
 21
92.5646300000000082
 31
0.0
  0
LINE
  5
475
100
AcDbEntity
  8
0
 62
256
370
-1
 48
1.0
  6
BYLAYER
100
AcDbLine
 10
78.5386934000000139
 20
92.5646300000000082
 30
0.0
 11
78.5386934000000139
 21
91.5641300000000058
 31
0.0
  0
LINE
  5
476
100
AcDbEntity
  8
0
 62
256
370
-1
 48
1.0
  6
BYLAYER
100
AcDbLine
 10
78.5386934000000139
 20
91.5641300000000058
 30
0.0
 11
77.7378934000000044
 21
91.5641300000000058
 31
0.0
  0
LINE
  5
477
100
AcDbEntity
  8
0
 62
256
370
-1
 48
1.0
  6
BYLAYER
100
AcDbLine
 10
77.7378934000000044
 20
91.5641300000000058
 30
0.0
 11
77.7378934000000044
 21
88.4650299999999987
 31
0.0
  0
LINE
  5
478
100
AcDbEntity
  8
0
 62
256
370
-1
 48
1.0
  6
BYLAYER
100
AcDbLine
 10
77.7378934000000044
 20
88.4650299999999987
 30
0.0
 11
78.5386934000000139
 21
88.4650299999999987
 31
0.0
  0
LINE
  5
479
100
AcDbEntity
  8
0
 62
256
370
-1
 48
1.0
  6
BYLAYER
100
AcDbLine
 10
78.5386934000000139
 20
88.4650299999999987
 30
0.0
 11
78.5386934000000139
 21
82.6650300000000016
 31
0.0
  0
LINE
  5
47A
100
AcDbEntity
  8
0
 62
256
370
-1
 48
1.0
  6
BYLAYER
100
AcDbLine
 10
78.5386934000000139
 20
82.6650300000000016
 30
0.0
 11
77.7378934000000044
 21
82.6650300000000016
 31
0.0
  0
LINE
  5
47B
100
AcDbEntity
  8
0
 62
256
370
-1
 48
1.0
  6
BYLAYER
100
AcDbLine
 10
77.7378934000000044
 20
82.6650300000000016
 30
0.0
 11
77.7378934000000044
 21
79.5644300000000015
 31
0.0
  0
LINE
  5
47C
100
AcDbEntity
  8
0
 62
256
370
-1
 48
1.0
  6
BYLAYER
100
AcDbLine
 10
77.7378934000000044
 20
79.5644300000000015
 30
0.0
 11
78.5386934000000139
 21
79.5644300000000015
 31
0.0
  0
LINE
  5
47D
100
AcDbEntity
  8
0
 62
256
370
-1
 48
1.0
  6
BYLAYER
100
AcDbLine
 10
78.5386934000000139
 20
79.5644300000000015
 30
0.0
 11
78.5386934000000139
 21
78.5650300000000072
 31
0.0
  0
LINE
  5
47E
100
AcDbEntity
  8
0
 62
256
370
-1
 48
1.0
  6
BYLAYER
100
AcDbLine
 10
78.5386934000000139
 20
78.5650300000000072
 30
0.0
 11
92.5379934000000048
 21
78.5650300000000072
 31
0.0
  0
LINE
  5
47F
100
AcDbEntity
  8
0
 62
256
370
-1
 48
1.0
  6
BYLAYER
100
AcDbLine
 10
92.5379934000000048
 20
78.5650300000000072
 30
0.0
 11
92.5379934000000048
 21
79.5644300000000015
 31
0.0
  0
LINE
  5
480
100
AcDbEntity
  8
0
 62
256
370
-1
 48
1.0
  6
BYLAYER
100
AcDbLine
 10
92.5379934000000048
 20
79.5644300000000015
 30
0.0
 11
93.3387934000000143
 21
79.5644300000000015
 31
0.0
  0
LINE
  5
481
100
AcDbEntity
  8
0
 62
256
370
-1
 48
1.0
  6
BYLAYER
100
AcDbLine
 10
93.3387934000000143
 20
79.5644300000000015
 30
0.0
 11
93.3387934000000143
 21
82.6650300000000016
 31
0.0
  0
LINE
  5
482
100
AcDbEntity
  8
0
 62
256
370
-1
 48
1.0
  6
BYLAYER
100
AcDbLine
 10
93.3387934000000143
 20
82.6650300000000016
 30
0.0
 11
92.5379934000000048
 21
82.6650300000000016
 31
0.0
  0
LINE
  5
483
100
AcDbEntity
  8
0
 62
256
370
-1
 48
1.0
  6
BYLAYER
100
AcDbLine
 10
92.5379934000000048
 20
82.6650300000000016
 30
0.0
 11
92.5379934000000048
 21
88.4650299999999987
 31
0.0
  0
LINE
  5
484
100
AcDbEntity
  8
0
 62
256
370
-1
 48
1.0
  6
BYLAYER
100
AcDbLine
 10
92.5379934000000048
 20
88.4650299999999987
 30
0.0
 11
93.3387934000000143
 21
88.4650299999999987
 31
0.0
  0
LINE
  5
485
100
AcDbEntity
  8
0
 62
256
370
-1
 48
1.0
  6
BYLAYER
100
AcDbLine
 10
93.3387934000000143
 20
88.4650299999999987
 30
0.0
 11
93.3387934000000143
 21
91.5641300000000058
 31
0.0
  0
LINE
  5
486
100
AcDbEntity
  8
0
 62
256
370
-1
 48
1.0
  6
BYLAYER
100
AcDbLine
 10
93.3387934000000143
 20
91.5641300000000058
 30
0.0
 11
92.5379934000000048
 21
91.5641300000000058
 31
0.0
  0
LINE
  5
487
100
AcDbEntity
  8
0
 62
256
370
-1
 48
1.0
  6
BYLAYER
100
AcDbLine
 10
92.5379934000000048
 20
91.5641300000000058
 30
0.0
 11
92.5379934000000048
 21
92.5646300000000082
 31
0.0
  0
LINE
  5
488
100
AcDbEntity
  8
0
 62
256
370
-1
 48
1.0
  6
BYLAYER
100
AcDbLine
 10
92.5379934000000048
 20
92.5646300000000082
 30
0.0
 11
78.5386934000000139
 21
92.5646300000000082
 31
0.0
  0
LINE
  5
489
100
AcDbEntity
  8
0
 62
256
370
-1
 48
1.0
  6
BYLAYER
100
AcDbLine
 10
97.588693400000011
 20
92.5646300000000082
 30
0.0
 11
97.588693400000011
 21
91.5641300000000058
 31
0.0
  0
LINE
  5
48A
100
AcDbEntity
  8
0
 62
256
370
-1
 48
1.0
  6
BYLAYER
100
AcDbLine
 10
97.588693400000011
 20
91.5641300000000058
 30
0.0
 11
96.7878934000000157
 21
91.5641300000000058
 31
0.0
  0
LINE
  5
48B
100
AcDbEntity
  8
0
 62
256
370
-1
 48
1.0
  6
BYLAYER
100
AcDbLine
 10
96.7878934000000157
 20
91.5641300000000058
 30
0.0
 11
96.7878934000000157
 21
88.4650299999999987
 31
0.0
  0
LINE
  5
48C
100
AcDbEntity
  8
0
 62
256
370
-1
 48
1.0
  6
BYLAYER
100
AcDbLine
 10
96.7878934000000157
 20
88.4650299999999987
 30
0.0
 11
97.588693400000011
 21
88.4650299999999987
 31
0.0
  0
LINE
  5
48D
100
AcDbEntity
  8
0
 62
256
370
-1
 48
1.0
  6
BYLAYER
100
AcDbLine
 10
97.588693400000011
 20
88.4650299999999987
 30
0.0
 11
97.588693400000011
 21
82.6650300000000016
 31
0.0
  0
LINE
  5
48E
100
AcDbEntity
  8
0
 62
256
370
-1
 48
1.0
  6
BYLAYER
100
AcDbLine
 10
97.588693400000011
 20
82.6650300000000016
 30
0.0
 11
96.7878934000000157
 21
82.6650300000000016
 31
0.0
  0
LINE
  5
48F
100
AcDbEntity
  8
0
 62
256
370
-1
 48
1.0
  6
BYLAYER
100
AcDbLine
 10
96.7878934000000157
 20
82.6650300000000016
 30
0.0
 11
96.7878934000000157
 21
79.5644300000000015
 31
0.0
  0
LINE
  5
490
100
AcDbEntity
  8
0
 62
256
370
-1
 48
1.0
  6
BYLAYER
100
AcDbLine
 10
96.7878934000000157
 20
79.5644300000000015
 30
0.0
 11
97.588693400000011
 21
79.5644300000000015
 31
0.0
  0
LINE
  5
491
100
AcDbEntity
  8
0
 62
256
370
-1
 48
1.0
  6
BYLAYER
100
AcDbLine
 10
97.588693400000011
 20
79.5644300000000015
 30
0.0
 11
97.588693400000011
 21
78.5650300000000072
 31
0.0
  0
LINE
  5
492
100
AcDbEntity
  8
0
 62
256
370
-1
 48
1.0
  6
BYLAYER
100
AcDbLine
 10
97.588693400000011
 20
78.5650300000000072
 30
0.0
 11
111.588293400000012
 21
78.5650300000000072
 31
0.0
  0
LINE
  5
493
100
AcDbEntity
  8
0
 62
256
370
-1
 48
1.0
  6
BYLAYER
100
AcDbLine
 10
111.588293400000012
 20
78.5650300000000072
 30
0.0
 11
111.588293400000012
 21
79.5644300000000015
 31
0.0
  0
LINE
  5
494
100
AcDbEntity
  8
0
 62
256
370
-1
 48
1.0
  6
BYLAYER
100
AcDbLine
 10
111.588293400000012
 20
79.5644300000000015
 30
0.0
 11
112.3882934000000091
 21
79.5644300000000015
 31
0.0
  0
LINE
  5
495
100
AcDbEntity
  8
0
 62
256
370
-1
 48
1.0
  6
BYLAYER
100
AcDbLine
 10
112.3882934000000091
 20
79.5644300000000015
 30
0.0
 11
112.3882934000000091
 21
82.6650300000000016
 31
0.0
  0
LINE
  5
496
100
AcDbEntity
  8
0
 62
256
370
-1
 48
1.0
  6
BYLAYER
100
AcDbLine
 10
112.3882934000000091
 20
82.6650300000000016
 30
0.0
 11
111.588293400000012
 21
82.6650300000000016
 31
0.0
  0
LINE
  5
497
100
AcDbEntity
  8
0
 62
256
370
-1
 48
1.0
  6
BYLAYER
100
AcDbLine
 10
111.588293400000012
 20
82.6650300000000016
 30
0.0
 11
111.588293400000012
 21
88.4650299999999987
 31
0.0
  0
LINE
  5
498
100
AcDbEntity
  8
0
 62
256
370
-1
 48
1.0
  6
BYLAYER
100
AcDbLine
 10
111.588293400000012
 20
88.4650299999999987
 30
0.0
 11
112.3882934000000091
 21
88.4650299999999987
 31
0.0
  0
LINE
  5
499
100
AcDbEntity
  8
0
 62
256
370
-1
 48
1.0
  6
BYLAYER
100
AcDbLine
 10
112.3882934000000091
 20
88.4650299999999987
 30
0.0
 11
112.3882934000000091
 21
91.5641300000000058
 31
0.0
  0
LINE
  5
49A
100
AcDbEntity
  8
0
 62
256
370
-1
 48
1.0
  6
BYLAYER
100
AcDbLine
 10
112.3882934000000091
 20
91.5641300000000058
 30
0.0
 11
111.588293400000012
 21
91.5641300000000058
 31
0.0
  0
LINE
  5
49B
100
AcDbEntity
  8
0
 62
256
370
-1
 48
1.0
  6
BYLAYER
100
AcDbLine
 10
111.588293400000012
 20
91.5641300000000058
 30
0.0
 11
111.588293400000012
 21
92.5646300000000082
 31
0.0
  0
LINE
  5
49C
100
AcDbEntity
  8
0
 62
256
370
-1
 48
1.0
  6
BYLAYER
100
AcDbLine
 10
111.588293400000012
 20
92.5646300000000082
 30
0.0
 11
97.588693400000011
 21
92.5646300000000082
 31
0.0
  0
LINE
  5
49D
100
AcDbEntity
  8
0
 62
256
370
-1
 48
1.0
  6
BYLAYER
100
AcDbLine
 10
116.6382934000000091
 20
92.5646300000000082
 30
0.0
 11
116.6382934000000091
 21
91.5641300000000058
 31
0.0
  0
LINE
  5
49E
100
AcDbEntity
  8
0
 62
256
370
-1
 48
1.0
  6
BYLAYER
100
AcDbLine
 10
116.6382934000000091
 20
91.5641300000000058
 30
0.0
 11
115.838293400000012
 21
91.5641300000000058
 31
0.0
  0
LINE
  5
49F
100
AcDbEntity
  8
0
 62
256
370
-1
 48
1.0
  6
BYLAYER
100
AcDbLine
 10
115.838293400000012
 20
91.5641300000000058
 30
0.0
 11
115.838293400000012
 21
88.4650299999999987
 31
0.0
  0
LINE
  5
4A0
100
AcDbEntity
  8
0
 62
256
370
-1
 48
1.0
  6
BYLAYER
100
AcDbLine
 10
115.838293400000012
 20
88.4650299999999987
 30
0.0
 11
116.6382934000000091
 21
88.4650299999999987
 31
0.0
  0
LINE
  5
4A1
100
AcDbEntity
  8
0
 62
256
370
-1
 48
1.0
  6
BYLAYER
100
AcDbLine
 10
116.6382934000000091
 20
88.4650299999999987
 30
0.0
 11
116.6382934000000091
 21
82.6650300000000016
 31
0.0
  0
LINE
  5
4A2
100
AcDbEntity
  8
0
 62
256
370
-1
 48
1.0
  6
BYLAYER
100
AcDbLine
 10
116.6382934000000091
 20
82.6650300000000016
 30
0.0
 11
115.838293400000012
 21
82.6650300000000016
 31
0.0
  0
LINE
  5
4A3
100
AcDbEntity
  8
0
 62
256
370
-1
 48
1.0
  6
BYLAYER
100
AcDbLine
 10
115.838293400000012
 20
82.6650300000000016
 30
0.0
 11
115.838293400000012
 21
79.5644300000000015
 31
0.0
  0
LINE
  5
4A4
100
AcDbEntity
  8
0
 62
256
370
-1
 48
1.0
  6
BYLAYER
100
AcDbLine
 10
115.838293400000012
 20
79.5644300000000015
 30
0.0
 11
116.6382934000000091
 21
79.5644300000000015
 31
0.0
  0
LINE
  5
4A5
100
AcDbEntity
  8
0
 62
256
370
-1
 48
1.0
  6
BYLAYER
100
AcDbLine
 10
116.6382934000000091
 20
79.5644300000000015
 30
0.0
 11
116.6382934000000091
 21
78.5650300000000072
 31
0.0
  0
LINE
  5
4A6
100
AcDbEntity
  8
0
 62
256
370
-1
 48
1.0
  6
BYLAYER
100
AcDbLine
 10
116.6382934000000091
 20
78.5650300000000072
 30
0.0
 11
130.6382934000000091
 21
78.5650300000000072
 31
0.0
  0
LINE
  5
4A7
100
AcDbEntity
  8
0
 62
256
370
-1
 48
1.0
  6
BYLAYER
100
AcDbLine
 10
130.6382934000000091
 20
78.5650300000000072
 30
0.0
 11
130.6382934000000091
 21
79.5644300000000015
 31
0.0
  0
LINE
  5
4A8
100
AcDbEntity
  8
0
 62
256
370
-1
 48
1.0
  6
BYLAYER
100
AcDbLine
 10
130.6382934000000091
 20
79.5644300000000015
 30
0.0
 11
131.4382934000000205
 21
79.5644300000000015
 31
0.0
  0
LINE
  5
4A9
100
AcDbEntity
  8
0
 62
256
370
-1
 48
1.0
  6
BYLAYER
100
AcDbLine
 10
131.4382934000000205
 20
79.5644300000000015
 30
0.0
 11
131.4382934000000205
 21
82.6650300000000016
 31
0.0
  0
LINE
  5
4AA
100
AcDbEntity
  8
0
 62
256
370
-1
 48
1.0
  6
BYLAYER
100
AcDbLine
 10
131.4382934000000205
 20
82.6650300000000016
 30
0.0
 11
130.6382934000000091
 21
82.6650300000000016
 31
0.0
  0
LINE
  5
4AB
100
AcDbEntity
  8
0
 62
256
370
-1
 48
1.0
  6
BYLAYER
100
AcDbLine
 10
130.6382934000000091
 20
82.6650300000000016
 30
0.0
 11
130.6382934000000091
 21
88.4650299999999987
 31
0.0
  0
LINE
  5
4AC
100
AcDbEntity
  8
0
 62
256
370
-1
 48
1.0
  6
BYLAYER
100
AcDbLine
 10
130.6382934000000091
 20
88.4650299999999987
 30
0.0
 11
131.4382934000000205
 21
88.4650299999999987
 31
0.0
  0
LINE
  5
4AD
100
AcDbEntity
  8
0
 62
256
370
-1
 48
1.0
  6
BYLAYER
100
AcDbLine
 10
131.4382934000000205
 20
88.4650299999999987
 30
0.0
 11
131.4382934000000205
 21
91.5641300000000058
 31
0.0
  0
LINE
  5
4AE
100
AcDbEntity
  8
0
 62
256
370
-1
 48
1.0
  6
BYLAYER
100
AcDbLine
 10
131.4382934000000205
 20
91.5641300000000058
 30
0.0
 11
130.6382934000000091
 21
91.5641300000000058
 31
0.0
  0
LINE
  5
4AF
100
AcDbEntity
  8
0
 62
256
370
-1
 48
1.0
  6
BYLAYER
100
AcDbLine
 10
130.6382934000000091
 20
91.5641300000000058
 30
0.0
 11
130.6382934000000091
 21
92.5646300000000082
 31
0.0
  0
LINE
  5
4B0
100
AcDbEntity
  8
0
 62
256
370
-1
 48
1.0
  6
BYLAYER
100
AcDbLine
 10
130.6382934000000091
 20
92.5646300000000082
 30
0.0
 11
116.6382934000000091
 21
92.5646300000000082
 31
0.0
  0
LINE
  5
4B1
100
AcDbEntity
  8
0
 62
256
370
-1
 48
1.0
  6
BYLAYER
100
AcDbLine
 10
135.6882934000000205
 20
92.5646300000000082
 30
0.0
 11
135.6882934000000205
 21
91.5641300000000058
 31
0.0
  0
LINE
  5
4B2
100
AcDbEntity
  8
0
 62
256
370
-1
 48
1.0
  6
BYLAYER
100
AcDbLine
 10
135.6882934000000205
 20
91.5641300000000058
 30
0.0
 11
134.8882934000000091
 21
91.5641300000000058
 31
0.0
  0
LINE
  5
4B3
100
AcDbEntity
  8
0
 62
256
370
-1
 48
1.0
  6
BYLAYER
100
AcDbLine
 10
134.8882934000000091
 20
91.5641300000000058
 30
0.0
 11
134.8882934000000091
 21
88.4650299999999987
 31
0.0
  0
LINE
  5
4B4
100
AcDbEntity
  8
0
 62
256
370
-1
 48
1.0
  6
BYLAYER
100
AcDbLine
 10
134.8882934000000091
 20
88.4650299999999987
 30
0.0
 11
135.6882934000000205
 21
88.4650299999999987
 31
0.0
  0
LINE
  5
4B5
100
AcDbEntity
  8
0
 62
256
370
-1
 48
1.0
  6
BYLAYER
100
AcDbLine
 10
135.6882934000000205
 20
88.4650299999999987
 30
0.0
 11
135.6882934000000205
 21
82.6650300000000016
 31
0.0
  0
LINE
  5
4B6
100
AcDbEntity
  8
0
 62
256
370
-1
 48
1.0
  6
BYLAYER
100
AcDbLine
 10
135.6882934000000205
 20
82.6650300000000016
 30
0.0
 11
134.8882934000000091
 21
82.6650300000000016
 31
0.0
  0
LINE
  5
4B7
100
AcDbEntity
  8
0
 62
256
370
-1
 48
1.0
  6
BYLAYER
100
AcDbLine
 10
134.8882934000000091
 20
82.6650300000000016
 30
0.0
 11
134.8882934000000091
 21
79.5644300000000015
 31
0.0
  0
LINE
  5
4B8
100
AcDbEntity
  8
0
 62
256
370
-1
 48
1.0
  6
BYLAYER
100
AcDbLine
 10
134.8882934000000091
 20
79.5644300000000015
 30
0.0
 11
135.6882934000000205
 21
79.5644300000000015
 31
0.0
  0
LINE
  5
4B9
100
AcDbEntity
  8
0
 62
256
370
-1
 48
1.0
  6
BYLAYER
100
AcDbLine
 10
135.6882934000000205
 20
79.5644300000000015
 30
0.0
 11
135.6882934000000205
 21
78.5650300000000072
 31
0.0
  0
LINE
  5
4BA
100
AcDbEntity
  8
0
 62
256
370
-1
 48
1.0
  6
BYLAYER
100
AcDbLine
 10
135.6882934000000205
 20
78.5650300000000072
 30
0.0
 11
149.6882934000000205
 21
78.5650300000000072
 31
0.0
  0
LINE
  5
4BB
100
AcDbEntity
  8
0
 62
256
370
-1
 48
1.0
  6
BYLAYER
100
AcDbLine
 10
149.6882934000000205
 20
78.5650300000000072
 30
0.0
 11
149.6882934000000205
 21
79.5644300000000015
 31
0.0
  0
LINE
  5
4BC
100
AcDbEntity
  8
0
 62
256
370
-1
 48
1.0
  6
BYLAYER
100
AcDbLine
 10
149.6882934000000205
 20
79.5644300000000015
 30
0.0
 11
150.4872933999999987
 21
79.5644300000000015
 31
0.0
  0
LINE
  5
4BD
100
AcDbEntity
  8
0
 62
256
370
-1
 48
1.0
  6
BYLAYER
100
AcDbLine
 10
150.4872933999999987
 20
79.5644300000000015
 30
0.0
 11
150.4872933999999987
 21
82.6650300000000016
 31
0.0
  0
LINE
  5
4BE
100
AcDbEntity
  8
0
 62
256
370
-1
 48
1.0
  6
BYLAYER
100
AcDbLine
 10
150.4872933999999987
 20
82.6650300000000016
 30
0.0
 11
149.6882934000000205
 21
82.6650300000000016
 31
0.0
  0
LINE
  5
4BF
100
AcDbEntity
  8
0
 62
256
370
-1
 48
1.0
  6
BYLAYER
100
AcDbLine
 10
149.6882934000000205
 20
82.6650300000000016
 30
0.0
 11
149.6882934000000205
 21
88.4650299999999987
 31
0.0
  0
LINE
  5
4C0
100
AcDbEntity
  8
0
 62
256
370
-1
 48
1.0
  6
BYLAYER
100
AcDbLine
 10
149.6882934000000205
 20
88.4650299999999987
 30
0.0
 11
150.4872933999999987
 21
88.4650299999999987
 31
0.0
  0
LINE
  5
4C1
100
AcDbEntity
  8
0
 62
256
370
-1
 48
1.0
  6
BYLAYER
100
AcDbLine
 10
150.4872933999999987
 20
88.4650299999999987
 30
0.0
 11
150.4872933999999987
 21
91.5641300000000058
 31
0.0
  0
LINE
  5
4C2
100
AcDbEntity
  8
0
 62
256
370
-1
 48
1.0
  6
BYLAYER
100
AcDbLine
 10
150.4872933999999987
 20
91.5641300000000058
 30
0.0
 11
149.6882934000000205
 21
91.5641300000000058
 31
0.0
  0
LINE
  5
4C3
100
AcDbEntity
  8
0
 62
256
370
-1
 48
1.0
  6
BYLAYER
100
AcDbLine
 10
149.6882934000000205
 20
91.5641300000000058
 30
0.0
 11
149.6882934000000205
 21
92.5646300000000082
 31
0.0
  0
LINE
  5
4C4
100
AcDbEntity
  8
0
 62
256
370
-1
 48
1.0
  6
BYLAYER
100
AcDbLine
 10
149.6882934000000205
 20
92.5646300000000082
 30
0.0
 11
135.6882934000000205
 21
92.5646300000000082
 31
0.0
  0
LINE
  5
4C5
100
AcDbEntity
  8
0
 62
256
370
-1
 48
1.0
  6
BYLAYER
100
AcDbLine
 10
154.7372933999999987
 20
92.5646300000000082
 30
0.0
 11
154.7372933999999987
 21
91.5641300000000058
 31
0.0
  0
LINE
  5
4C6
100
AcDbEntity
  8
0
 62
256
370
-1
 48
1.0
  6
BYLAYER
100
AcDbLine
 10
154.7372933999999987
 20
91.5641300000000058
 30
0.0
 11
153.9382934000000205
 21
91.5641300000000058
 31
0.0
  0
LINE
  5
4C7
100
AcDbEntity
  8
0
 62
256
370
-1
 48
1.0
  6
BYLAYER
100
AcDbLine
 10
153.9382934000000205
 20
91.5641300000000058
 30
0.0
 11
153.9382934000000205
 21
88.4650299999999987
 31
0.0
  0
LINE
  5
4C8
100
AcDbEntity
  8
0
 62
256
370
-1
 48
1.0
  6
BYLAYER
100
AcDbLine
 10
153.9382934000000205
 20
88.4650299999999987
 30
0.0
 11
154.7372933999999987
 21
88.4650299999999987
 31
0.0
  0
LINE
  5
4C9
100
AcDbEntity
  8
0
 62
256
370
-1
 48
1.0
  6
BYLAYER
100
AcDbLine
 10
154.7372933999999987
 20
88.4650299999999987
 30
0.0
 11
154.7372933999999987
 21
82.6650300000000016
 31
0.0
  0
LINE
  5
4CA
100
AcDbEntity
  8
0
 62
256
370
-1
 48
1.0
  6
BYLAYER
100
AcDbLine
 10
154.7372933999999987
 20
82.6650300000000016
 30
0.0
 11
153.9382934000000205
 21
82.6650300000000016
 31
0.0
  0
LINE
  5
4CB
100
AcDbEntity
  8
0
 62
256
370
-1
 48
1.0
  6
BYLAYER
100
AcDbLine
 10
153.9382934000000205
 20
82.6650300000000016
 30
0.0
 11
153.9382934000000205
 21
79.5644300000000015
 31
0.0
  0
LINE
  5
4CC
100
AcDbEntity
  8
0
 62
256
370
-1
 48
1.0
  6
BYLAYER
100
AcDbLine
 10
153.9382934000000205
 20
79.5644300000000015
 30
0.0
 11
154.7372933999999987
 21
79.5644300000000015
 31
0.0
  0
LINE
  5
4CD
100
AcDbEntity
  8
0
 62
256
370
-1
 48
1.0
  6
BYLAYER
100
AcDbLine
 10
154.7372933999999987
 20
79.5644300000000015
 30
0.0
 11
154.7372933999999987
 21
78.5650300000000072
 31
0.0
  0
LINE
  5
4CE
100
AcDbEntity
  8
0
 62
256
370
-1
 48
1.0
  6
BYLAYER
100
AcDbLine
 10
154.7372933999999987
 20
78.5650300000000072
 30
0.0
 11
168.7382934000000034
 21
78.5650300000000072
 31
0.0
  0
LINE
  5
4CF
100
AcDbEntity
  8
0
 62
256
370
-1
 48
1.0
  6
BYLAYER
100
AcDbLine
 10
168.7382934000000034
 20
78.5650300000000072
 30
0.0
 11
168.7382934000000034
 21
79.5644300000000015
 31
0.0
  0
LINE
  5
4D0
100
AcDbEntity
  8
0
 62
256
370
-1
 48
1.0
  6
BYLAYER
100
AcDbLine
 10
168.7382934000000034
 20
79.5644300000000015
 30
0.0
 11
169.5382934000000148
 21
79.5644300000000015
 31
0.0
  0
LINE
  5
4D1
100
AcDbEntity
  8
0
 62
256
370
-1
 48
1.0
  6
BYLAYER
100
AcDbLine
 10
169.5382934000000148
 20
79.5644300000000015
 30
0.0
 11
169.5382934000000148
 21
82.6650300000000016
 31
0.0
  0
LINE
  5
4D2
100
AcDbEntity
  8
0
 62
256
370
-1
 48
1.0
  6
BYLAYER
100
AcDbLine
 10
169.5382934000000148
 20
82.6650300000000016
 30
0.0
 11
168.7382934000000034
 21
82.6650300000000016
 31
0.0
  0
LINE
  5
4D3
100
AcDbEntity
  8
0
 62
256
370
-1
 48
1.0
  6
BYLAYER
100
AcDbLine
 10
168.7382934000000034
 20
82.6650300000000016
 30
0.0
 11
168.7382934000000034
 21
88.4650299999999987
 31
0.0
  0
LINE
  5
4D4
100
AcDbEntity
  8
0
 62
256
370
-1
 48
1.0
  6
BYLAYER
100
AcDbLine
 10
168.7382934000000034
 20
88.4650299999999987
 30
0.0
 11
169.5382934000000148
 21
88.4650299999999987
 31
0.0
  0
LINE
  5
4D5
100
AcDbEntity
  8
0
 62
256
370
-1
 48
1.0
  6
BYLAYER
100
AcDbLine
 10
169.5382934000000148
 20
88.4650299999999987
 30
0.0
 11
169.5382934000000148
 21
91.5641300000000058
 31
0.0
  0
LINE
  5
4D6
100
AcDbEntity
  8
0
 62
256
370
-1
 48
1.0
  6
BYLAYER
100
AcDbLine
 10
169.5382934000000148
 20
91.5641300000000058
 30
0.0
 11
168.7382934000000034
 21
91.5641300000000058
 31
0.0
  0
LINE
  5
4D7
100
AcDbEntity
  8
0
 62
256
370
-1
 48
1.0
  6
BYLAYER
100
AcDbLine
 10
168.7382934000000034
 20
91.5641300000000058
 30
0.0
 11
168.7382934000000034
 21
92.5646300000000082
 31
0.0
  0
LINE
  5
4D8
100
AcDbEntity
  8
0
 62
256
370
-1
 48
1.0
  6
BYLAYER
100
AcDbLine
 10
168.7382934000000034
 20
92.5646300000000082
 30
0.0
 11
154.7372933999999987
 21
92.5646300000000082
 31
0.0
  0
LINE
  5
4D9
100
AcDbEntity
  8
0
 62
256
370
-1
 48
1.0
  6
BYLAYER
100
AcDbLine
 10
173.7882934000000148
 20
92.5646300000000082
 30
0.0
 11
173.7882934000000148
 21
91.5641300000000058
 31
0.0
  0
LINE
  5
4DA
100
AcDbEntity
  8
0
 62
256
370
-1
 48
1.0
  6
BYLAYER
100
AcDbLine
 10
173.7882934000000148
 20
91.5641300000000058
 30
0.0
 11
172.9882934000000034
 21
91.5641300000000058
 31
0.0
  0
LINE
  5
4DB
100
AcDbEntity
  8
0
 62
256
370
-1
 48
1.0
  6
BYLAYER
100
AcDbLine
 10
172.9882934000000034
 20
91.5641300000000058
 30
0.0
 11
172.9882934000000034
 21
88.4650299999999987
 31
0.0
  0
LINE
  5
4DC
100
AcDbEntity
  8
0
 62
256
370
-1
 48
1.0
  6
BYLAYER
100
AcDbLine
 10
172.9882934000000034
 20
88.4650299999999987
 30
0.0
 11
173.7882934000000148
 21
88.4650299999999987
 31
0.0
  0
LINE
  5
4DD
100
AcDbEntity
  8
0
 62
256
370
-1
 48
1.0
  6
BYLAYER
100
AcDbLine
 10
173.7882934000000148
 20
88.4650299999999987
 30
0.0
 11
173.7882934000000148
 21
82.6650300000000016
 31
0.0
  0
LINE
  5
4DE
100
AcDbEntity
  8
0
 62
256
370
-1
 48
1.0
  6
BYLAYER
100
AcDbLine
 10
173.7882934000000148
 20
82.6650300000000016
 30
0.0
 11
172.9882934000000034
 21
82.6650300000000016
 31
0.0
  0
LINE
  5
4DF
100
AcDbEntity
  8
0
 62
256
370
-1
 48
1.0
  6
BYLAYER
100
AcDbLine
 10
172.9882934000000034
 20
82.6650300000000016
 30
0.0
 11
172.9882934000000034
 21
79.5644300000000015
 31
0.0
  0
LINE
  5
4E0
100
AcDbEntity
  8
0
 62
256
370
-1
 48
1.0
  6
BYLAYER
100
AcDbLine
 10
172.9882934000000034
 20
79.5644300000000015
 30
0.0
 11
173.7882934000000148
 21
79.5644300000000015
 31
0.0
  0
LINE
  5
4E1
100
AcDbEntity
  8
0
 62
256
370
-1
 48
1.0
  6
BYLAYER
100
AcDbLine
 10
173.7882934000000148
 20
79.5644300000000015
 30
0.0
 11
173.7882934000000148
 21
78.5650300000000072
 31
0.0
  0
LINE
  5
4E2
100
AcDbEntity
  8
0
 62
256
370
-1
 48
1.0
  6
BYLAYER
100
AcDbLine
 10
173.7882934000000148
 20
78.5650300000000072
 30
0.0
 11
187.7882934000000148
 21
78.5650300000000072
 31
0.0
  0
LINE
  5
4E3
100
AcDbEntity
  8
0
 62
256
370
-1
 48
1.0
  6
BYLAYER
100
AcDbLine
 10
187.7882934000000148
 20
78.5650300000000072
 30
0.0
 11
187.7882934000000148
 21
79.5644300000000015
 31
0.0
  0
LINE
  5
4E4
100
AcDbEntity
  8
0
 62
256
370
-1
 48
1.0
  6
BYLAYER
100
AcDbLine
 10
187.7882934000000148
 20
79.5644300000000015
 30
0.0
 11
188.5872934000000214
 21
79.5644300000000015
 31
0.0
  0
LINE
  5
4E5
100
AcDbEntity
  8
0
 62
256
370
-1
 48
1.0
  6
BYLAYER
100
AcDbLine
 10
188.5872934000000214
 20
79.5644300000000015
 30
0.0
 11
188.5872934000000214
 21
82.6650300000000016
 31
0.0
  0
LINE
  5
4E6
100
AcDbEntity
  8
0
 62
256
370
-1
 48
1.0
  6
BYLAYER
100
AcDbLine
 10
188.5872934000000214
 20
82.6650300000000016
 30
0.0
 11
187.7882934000000148
 21
82.6650300000000016
 31
0.0
  0
LINE
  5
4E7
100
AcDbEntity
  8
0
 62
256
370
-1
 48
1.0
  6
BYLAYER
100
AcDbLine
 10
187.7882934000000148
 20
82.6650300000000016
 30
0.0
 11
187.7882934000000148
 21
88.4650299999999987
 31
0.0
  0
LINE
  5
4E8
100
AcDbEntity
  8
0
 62
256
370
-1
 48
1.0
  6
BYLAYER
100
AcDbLine
 10
187.7882934000000148
 20
88.4650299999999987
 30
0.0
 11
188.5872934000000214
 21
88.4650299999999987
 31
0.0
  0
LINE
  5
4E9
100
AcDbEntity
  8
0
 62
256
370
-1
 48
1.0
  6
BYLAYER
100
AcDbLine
 10
188.5872934000000214
 20
88.4650299999999987
 30
0.0
 11
188.5872934000000214
 21
91.5641300000000058
 31
0.0
  0
LINE
  5
4EA
100
AcDbEntity
  8
0
 62
256
370
-1
 48
1.0
  6
BYLAYER
100
AcDbLine
 10
188.5872934000000214
 20
91.5641300000000058
 30
0.0
 11
187.7882934000000148
 21
91.5641300000000058
 31
0.0
  0
LINE
  5
4EB
100
AcDbEntity
  8
0
 62
256
370
-1
 48
1.0
  6
BYLAYER
100
AcDbLine
 10
187.7882934000000148
 20
91.5641300000000058
 30
0.0
 11
187.7882934000000148
 21
92.5646300000000082
 31
0.0
  0
LINE
  5
4EC
100
AcDbEntity
  8
0
 62
256
370
-1
 48
1.0
  6
BYLAYER
100
AcDbLine
 10
187.7882934000000148
 20
92.5646300000000082
 30
0.0
 11
173.7882934000000148
 21
92.5646300000000082
 31
0.0
  0
LINE
  5
4ED
100
AcDbEntity
  8
0
 62
256
370
-1
 48
1.0
  6
BYLAYER
100
AcDbLine
 10
192.8372934000000214
 20
92.5646300000000082
 30
0.0
 11
192.8372934000000214
 21
91.5641300000000058
 31
0.0
  0
LINE
  5
4EE
100
AcDbEntity
  8
0
 62
256
370
-1
 48
1.0
  6
BYLAYER
100
AcDbLine
 10
192.8372934000000214
 20
91.5641300000000058
 30
0.0
 11
192.0382934000000148
 21
91.5641300000000058
 31
0.0
  0
LINE
  5
4EF
100
AcDbEntity
  8
0
 62
256
370
-1
 48
1.0
  6
BYLAYER
100
AcDbLine
 10
192.0382934000000148
 20
91.5641300000000058
 30
0.0
 11
192.0382934000000148
 21
88.4650299999999987
 31
0.0
  0
LINE
  5
4F0
100
AcDbEntity
  8
0
 62
256
370
-1
 48
1.0
  6
BYLAYER
100
AcDbLine
 10
192.0382934000000148
 20
88.4650299999999987
 30
0.0
 11
192.8372934000000214
 21
88.4650299999999987
 31
0.0
  0
LINE
  5
4F1
100
AcDbEntity
  8
0
 62
256
370
-1
 48
1.0
  6
BYLAYER
100
AcDbLine
 10
192.8372934000000214
 20
88.4650299999999987
 30
0.0
 11
192.8372934000000214
 21
82.6650300000000016
 31
0.0
  0
LINE
  5
4F2
100
AcDbEntity
  8
0
 62
256
370
-1
 48
1.0
  6
BYLAYER
100
AcDbLine
 10
192.8372934000000214
 20
82.6650300000000016
 30
0.0
 11
192.0382934000000148
 21
82.6650300000000016
 31
0.0
  0
LINE
  5
4F3
100
AcDbEntity
  8
0
 62
256
370
-1
 48
1.0
  6
BYLAYER
100
AcDbLine
 10
192.0382934000000148
 20
82.6650300000000016
 30
0.0
 11
192.0382934000000148
 21
79.5644300000000015
 31
0.0
  0
LINE
  5
4F4
100
AcDbEntity
  8
0
 62
256
370
-1
 48
1.0
  6
BYLAYER
100
AcDbLine
 10
192.0382934000000148
 20
79.5644300000000015
 30
0.0
 11
192.8372934000000214
 21
79.5644300000000015
 31
0.0
  0
LINE
  5
4F5
100
AcDbEntity
  8
0
 62
256
370
-1
 48
1.0
  6
BYLAYER
100
AcDbLine
 10
192.8372934000000214
 20
79.5644300000000015
 30
0.0
 11
192.8372934000000214
 21
78.5650300000000072
 31
0.0
  0
LINE
  5
4F6
100
AcDbEntity
  8
0
 62
256
370
-1
 48
1.0
  6
BYLAYER
100
AcDbLine
 10
192.8372934000000214
 20
78.5650300000000072
 30
0.0
 11
206.8382933999999977
 21
78.5650300000000072
 31
0.0
  0
LINE
  5
4F7
100
AcDbEntity
  8
0
 62
256
370
-1
 48
1.0
  6
BYLAYER
100
AcDbLine
 10
206.8382933999999977
 20
78.5650300000000072
 30
0.0
 11
206.8382933999999977
 21
79.5644300000000015
 31
0.0
  0
LINE
  5
4F8
100
AcDbEntity
  8
0
 62
256
370
-1
 48
1.0
  6
BYLAYER
100
AcDbLine
 10
206.8382933999999977
 20
79.5644300000000015
 30
0.0
 11
207.6382934000000091
 21
79.5644300000000015
 31
0.0
  0
LINE
  5
4F9
100
AcDbEntity
  8
0
 62
256
370
-1
 48
1.0
  6
BYLAYER
100
AcDbLine
 10
207.6382934000000091
 20
79.5644300000000015
 30
0.0
 11
207.6382934000000091
 21
82.6650300000000016
 31
0.0
  0
LINE
  5
4FA
100
AcDbEntity
  8
0
 62
256
370
-1
 48
1.0
  6
BYLAYER
100
AcDbLine
 10
207.6382934000000091
 20
82.6650300000000016
 30
0.0
 11
206.8382933999999977
 21
82.6650300000000016
 31
0.0
  0
LINE
  5
4FB
100
AcDbEntity
  8
0
 62
256
370
-1
 48
1.0
  6
BYLAYER
100
AcDbLine
 10
206.8382933999999977
 20
82.6650300000000016
 30
0.0
 11
206.8382933999999977
 21
88.4650299999999987
 31
0.0
  0
LINE
  5
4FC
100
AcDbEntity
  8
0
 62
256
370
-1
 48
1.0
  6
BYLAYER
100
AcDbLine
 10
206.8382933999999977
 20
88.4650299999999987
 30
0.0
 11
207.6382934000000091
 21
88.4650299999999987
 31
0.0
  0
LINE
  5
4FD
100
AcDbEntity
  8
0
 62
256
370
-1
 48
1.0
  6
BYLAYER
100
AcDbLine
 10
207.6382934000000091
 20
88.4650299999999987
 30
0.0
 11
207.6382934000000091
 21
91.5641300000000058
 31
0.0
  0
LINE
  5
4FE
100
AcDbEntity
  8
0
 62
256
370
-1
 48
1.0
  6
BYLAYER
100
AcDbLine
 10
207.6382934000000091
 20
91.5641300000000058
 30
0.0
 11
206.8382933999999977
 21
91.5641300000000058
 31
0.0
  0
LINE
  5
4FF
100
AcDbEntity
  8
0
 62
256
370
-1
 48
1.0
  6
BYLAYER
100
AcDbLine
 10
206.8382933999999977
 20
91.5641300000000058
 30
0.0
 11
206.8382933999999977
 21
92.5646300000000082
 31
0.0
  0
LINE
  5
500
100
AcDbEntity
  8
0
 62
256
370
-1
 48
1.0
  6
BYLAYER
100
AcDbLine
 10
206.8382933999999977
 20
92.5646300000000082
 30
0.0
 11
192.8372934000000214
 21
92.5646300000000082
 31
0.0
  0
LINE
  5
501
100
AcDbEntity
  8
0
 62
256
370
-1
 48
1.0
  6
BYLAYER
100
AcDbLine
 10
211.8882934000000091
 20
92.5646300000000082
 30
0.0
 11
211.8882934000000091
 21
91.5641300000000058
 31
0.0
  0
LINE
  5
502
100
AcDbEntity
  8
0
 62
256
370
-1
 48
1.0
  6
BYLAYER
100
AcDbLine
 10
211.8882934000000091
 20
91.5641300000000058
 30
0.0
 11
211.0882933999999977
 21
91.5641300000000058
 31
0.0
  0
LINE
  5
503
100
AcDbEntity
  8
0
 62
256
370
-1
 48
1.0
  6
BYLAYER
100
AcDbLine
 10
211.0882933999999977
 20
91.5641300000000058
 30
0.0
 11
211.0882933999999977
 21
88.4650299999999987
 31
0.0
  0
LINE
  5
504
100
AcDbEntity
  8
0
 62
256
370
-1
 48
1.0
  6
BYLAYER
100
AcDbLine
 10
211.0882933999999977
 20
88.4650299999999987
 30
0.0
 11
211.8882934000000091
 21
88.4650299999999987
 31
0.0
  0
LINE
  5
505
100
AcDbEntity
  8
0
 62
256
370
-1
 48
1.0
  6
BYLAYER
100
AcDbLine
 10
211.8882934000000091
 20
88.4650299999999987
 30
0.0
 11
211.8882934000000091
 21
82.6650300000000016
 31
0.0
  0
LINE
  5
506
100
AcDbEntity
  8
0
 62
256
370
-1
 48
1.0
  6
BYLAYER
100
AcDbLine
 10
211.8882934000000091
 20
82.6650300000000016
 30
0.0
 11
211.0882933999999977
 21
82.6650300000000016
 31
0.0
  0
LINE
  5
507
100
AcDbEntity
  8
0
 62
256
370
-1
 48
1.0
  6
BYLAYER
100
AcDbLine
 10
211.0882933999999977
 20
82.6650300000000016
 30
0.0
 11
211.0882933999999977
 21
79.5644300000000015
 31
0.0
  0
LINE
  5
508
100
AcDbEntity
  8
0
 62
256
370
-1
 48
1.0
  6
BYLAYER
100
AcDbLine
 10
211.0882933999999977
 20
79.5644300000000015
 30
0.0
 11
211.8882934000000091
 21
79.5644300000000015
 31
0.0
  0
LINE
  5
509
100
AcDbEntity
  8
0
 62
256
370
-1
 48
1.0
  6
BYLAYER
100
AcDbLine
 10
211.8882934000000091
 20
79.5644300000000015
 30
0.0
 11
211.8882934000000091
 21
78.5650300000000072
 31
0.0
  0
LINE
  5
50A
100
AcDbEntity
  8
0
 62
256
370
-1
 48
1.0
  6
BYLAYER
100
AcDbLine
 10
211.8882934000000091
 20
78.5650300000000072
 30
0.0
 11
225.8882934000000091
 21
78.5650300000000072
 31
0.0
  0
LINE
  5
50B
100
AcDbEntity
  8
0
 62
256
370
-1
 48
1.0
  6
BYLAYER
100
AcDbLine
 10
225.8882934000000091
 20
78.5650300000000072
 30
0.0
 11
225.8882934000000091
 21
79.5644300000000015
 31
0.0
  0
LINE
  5
50C
100
AcDbEntity
  8
0
 62
256
370
-1
 48
1.0
  6
BYLAYER
100
AcDbLine
 10
225.8882934000000091
 20
79.5644300000000015
 30
0.0
 11
226.6882934000000205
 21
79.5644300000000015
 31
0.0
  0
LINE
  5
50D
100
AcDbEntity
  8
0
 62
256
370
-1
 48
1.0
  6
BYLAYER
100
AcDbLine
 10
226.6882934000000205
 20
79.5644300000000015
 30
0.0
 11
226.6882934000000205
 21
82.6650300000000016
 31
0.0
  0
LINE
  5
50E
100
AcDbEntity
  8
0
 62
256
370
-1
 48
1.0
  6
BYLAYER
100
AcDbLine
 10
226.6882934000000205
 20
82.6650300000000016
 30
0.0
 11
225.8882934000000091
 21
82.6650300000000016
 31
0.0
  0
LINE
  5
50F
100
AcDbEntity
  8
0
 62
256
370
-1
 48
1.0
  6
BYLAYER
100
AcDbLine
 10
225.8882934000000091
 20
82.6650300000000016
 30
0.0
 11
225.8882934000000091
 21
88.4650299999999987
 31
0.0
  0
LINE
  5
510
100
AcDbEntity
  8
0
 62
256
370
-1
 48
1.0
  6
BYLAYER
100
AcDbLine
 10
225.8882934000000091
 20
88.4650299999999987
 30
0.0
 11
226.6882934000000205
 21
88.4650299999999987
 31
0.0
  0
LINE
  5
511
100
AcDbEntity
  8
0
 62
256
370
-1
 48
1.0
  6
BYLAYER
100
AcDbLine
 10
226.6882934000000205
 20
88.4650299999999987
 30
0.0
 11
226.6882934000000205
 21
91.5641300000000058
 31
0.0
  0
LINE
  5
512
100
AcDbEntity
  8
0
 62
256
370
-1
 48
1.0
  6
BYLAYER
100
AcDbLine
 10
226.6882934000000205
 20
91.5641300000000058
 30
0.0
 11
225.8882934000000091
 21
91.5641300000000058
 31
0.0
  0
LINE
  5
513
100
AcDbEntity
  8
0
 62
256
370
-1
 48
1.0
  6
BYLAYER
100
AcDbLine
 10
225.8882934000000091
 20
91.5641300000000058
 30
0.0
 11
225.8882934000000091
 21
92.5646300000000082
 31
0.0
  0
LINE
  5
514
100
AcDbEntity
  8
0
 62
256
370
-1
 48
1.0
  6
BYLAYER
100
AcDbLine
 10
225.8882934000000091
 20
92.5646300000000082
 30
0.0
 11
211.8882934000000091
 21
92.5646300000000082
 31
0.0
  0
LINE
  5
515
100
AcDbEntity
  8
0
 62
256
370
-1
 48
1.0
  6
BYLAYER
100
AcDbLine
 10
230.9382934000000205
 20
92.5646300000000082
 30
0.0
 11
230.9382934000000205
 21
91.5641300000000058
 31
0.0
  0
LINE
  5
516
100
AcDbEntity
  8
0
 62
256
370
-1
 48
1.0
  6
BYLAYER
100
AcDbLine
 10
230.9382934000000205
 20
91.5641300000000058
 30
0.0
 11
230.1382934000000091
 21
91.5641300000000058
 31
0.0
  0
LINE
  5
517
100
AcDbEntity
  8
0
 62
256
370
-1
 48
1.0
  6
BYLAYER
100
AcDbLine
 10
230.1382934000000091
 20
91.5641300000000058
 30
0.0
 11
230.1382934000000091
 21
88.4650299999999987
 31
0.0
  0
LINE
  5
518
100
AcDbEntity
  8
0
 62
256
370
-1
 48
1.0
  6
BYLAYER
100
AcDbLine
 10
230.1382934000000091
 20
88.4650299999999987
 30
0.0
 11
230.9382934000000205
 21
88.4650299999999987
 31
0.0
  0
LINE
  5
519
100
AcDbEntity
  8
0
 62
256
370
-1
 48
1.0
  6
BYLAYER
100
AcDbLine
 10
230.9382934000000205
 20
88.4650299999999987
 30
0.0
 11
230.9382934000000205
 21
82.6650300000000016
 31
0.0
  0
LINE
  5
51A
100
AcDbEntity
  8
0
 62
256
370
-1
 48
1.0
  6
BYLAYER
100
AcDbLine
 10
230.9382934000000205
 20
82.6650300000000016
 30
0.0
 11
230.1382934000000091
 21
82.6650300000000016
 31
0.0
  0
LINE
  5
51B
100
AcDbEntity
  8
0
 62
256
370
-1
 48
1.0
  6
BYLAYER
100
AcDbLine
 10
230.1382934000000091
 20
82.6650300000000016
 30
0.0
 11
230.1382934000000091
 21
79.5644300000000015
 31
0.0
  0
LINE
  5
51C
100
AcDbEntity
  8
0
 62
256
370
-1
 48
1.0
  6
BYLAYER
100
AcDbLine
 10
230.1382934000000091
 20
79.5644300000000015
 30
0.0
 11
230.9382934000000205
 21
79.5644300000000015
 31
0.0
  0
LINE
  5
51D
100
AcDbEntity
  8
0
 62
256
370
-1
 48
1.0
  6
BYLAYER
100
AcDbLine
 10
230.9382934000000205
 20
79.5644300000000015
 30
0.0
 11
230.9382934000000205
 21
78.5650300000000072
 31
0.0
  0
LINE
  5
51E
100
AcDbEntity
  8
0
 62
256
370
-1
 48
1.0
  6
BYLAYER
100
AcDbLine
 10
230.9382934000000205
 20
78.5650300000000072
 30
0.0
 11
244.9382934000000205
 21
78.5650300000000072
 31
0.0
  0
LINE
  5
51F
100
AcDbEntity
  8
0
 62
256
370
-1
 48
1.0
  6
BYLAYER
100
AcDbLine
 10
244.9382934000000205
 20
78.5650300000000072
 30
0.0
 11
244.9382934000000205
 21
79.5644300000000015
 31
0.0
  0
LINE
  5
520
100
AcDbEntity
  8
0
 62
256
370
-1
 48
1.0
  6
BYLAYER
100
AcDbLine
 10
244.9382934000000205
 20
79.5644300000000015
 30
0.0
 11
245.7372933999999987
 21
79.5644300000000015
 31
0.0
  0
LINE
  5
521
100
AcDbEntity
  8
0
 62
256
370
-1
 48
1.0
  6
BYLAYER
100
AcDbLine
 10
245.7372933999999987
 20
79.5644300000000015
 30
0.0
 11
245.7372933999999987
 21
82.6650300000000016
 31
0.0
  0
LINE
  5
522
100
AcDbEntity
  8
0
 62
256
370
-1
 48
1.0
  6
BYLAYER
100
AcDbLine
 10
245.7372933999999987
 20
82.6650300000000016
 30
0.0
 11
244.9382934000000205
 21
82.6650300000000016
 31
0.0
  0
LINE
  5
523
100
AcDbEntity
  8
0
 62
256
370
-1
 48
1.0
  6
BYLAYER
100
AcDbLine
 10
244.9382934000000205
 20
82.6650300000000016
 30
0.0
 11
244.9382934000000205
 21
88.4650299999999987
 31
0.0
  0
LINE
  5
524
100
AcDbEntity
  8
0
 62
256
370
-1
 48
1.0
  6
BYLAYER
100
AcDbLine
 10
244.9382934000000205
 20
88.4650299999999987
 30
0.0
 11
245.7372933999999987
 21
88.4650299999999987
 31
0.0
  0
LINE
  5
525
100
AcDbEntity
  8
0
 62
256
370
-1
 48
1.0
  6
BYLAYER
100
AcDbLine
 10
245.7372933999999987
 20
88.4650299999999987
 30
0.0
 11
245.7372933999999987
 21
91.5641300000000058
 31
0.0
  0
LINE
  5
526
100
AcDbEntity
  8
0
 62
256
370
-1
 48
1.0
  6
BYLAYER
100
AcDbLine
 10
245.7372933999999987
 20
91.5641300000000058
 30
0.0
 11
244.9382934000000205
 21
91.5641300000000058
 31
0.0
  0
LINE
  5
527
100
AcDbEntity
  8
0
 62
256
370
-1
 48
1.0
  6
BYLAYER
100
AcDbLine
 10
244.9382934000000205
 20
91.5641300000000058
 30
0.0
 11
244.9382934000000205
 21
92.5646300000000082
 31
0.0
  0
LINE
  5
528
100
AcDbEntity
  8
0
 62
256
370
-1
 48
1.0
  6
BYLAYER
100
AcDbLine
 10
244.9382934000000205
 20
92.5646300000000082
 30
0.0
 11
230.9382934000000205
 21
92.5646300000000082
 31
0.0
  0
LINE
  5
529
100
AcDbEntity
  8
0
 62
256
370
-1
 48
1.0
  6
BYLAYER
100
AcDbLine
 10
249.9872933999999987
 20
92.5646300000000082
 30
0.0
 11
249.9872933999999987
 21
91.5641300000000058
 31
0.0
  0
LINE
  5
52A
100
AcDbEntity
  8
0
 62
256
370
-1
 48
1.0
  6
BYLAYER
100
AcDbLine
 10
249.9872933999999987
 20
91.5641300000000058
 30
0.0
 11
249.1882934000000205
 21
91.5641300000000058
 31
0.0
  0
LINE
  5
52B
100
AcDbEntity
  8
0
 62
256
370
-1
 48
1.0
  6
BYLAYER
100
AcDbLine
 10
249.1882934000000205
 20
91.5641300000000058
 30
0.0
 11
249.1882934000000205
 21
88.4650299999999987
 31
0.0
  0
LINE
  5
52C
100
AcDbEntity
  8
0
 62
256
370
-1
 48
1.0
  6
BYLAYER
100
AcDbLine
 10
249.1882934000000205
 20
88.4650299999999987
 30
0.0
 11
249.9872933999999987
 21
88.4650299999999987
 31
0.0
  0
LINE
  5
52D
100
AcDbEntity
  8
0
 62
256
370
-1
 48
1.0
  6
BYLAYER
100
AcDbLine
 10
249.9872933999999987
 20
88.4650299999999987
 30
0.0
 11
249.9872933999999987
 21
82.6650300000000016
 31
0.0
  0
LINE
  5
52E
100
AcDbEntity
  8
0
 62
256
370
-1
 48
1.0
  6
BYLAYER
100
AcDbLine
 10
249.9872933999999987
 20
82.6650300000000016
 30
0.0
 11
249.1882934000000205
 21
82.6650300000000016
 31
0.0
  0
LINE
  5
52F
100
AcDbEntity
  8
0
 62
256
370
-1
 48
1.0
  6
BYLAYER
100
AcDbLine
 10
249.1882934000000205
 20
82.6650300000000016
 30
0.0
 11
249.1882934000000205
 21
79.5644300000000015
 31
0.0
  0
LINE
  5
530
100
AcDbEntity
  8
0
 62
256
370
-1
 48
1.0
  6
BYLAYER
100
AcDbLine
 10
249.1882934000000205
 20
79.5644300000000015
 30
0.0
 11
249.9872933999999987
 21
79.5644300000000015
 31
0.0
  0
LINE
  5
531
100
AcDbEntity
  8
0
 62
256
370
-1
 48
1.0
  6
BYLAYER
100
AcDbLine
 10
249.9872933999999987
 20
79.5644300000000015
 30
0.0
 11
249.9872933999999987
 21
78.5650300000000072
 31
0.0
  0
LINE
  5
532
100
AcDbEntity
  8
0
 62
256
370
-1
 48
1.0
  6
BYLAYER
100
AcDbLine
 10
249.9872933999999987
 20
78.5650300000000072
 30
0.0
 11
263.988293399999975
 21
78.5650300000000072
 31
0.0
  0
LINE
  5
533
100
AcDbEntity
  8
0
 62
256
370
-1
 48
1.0
  6
BYLAYER
100
AcDbLine
 10
263.988293399999975
 20
78.5650300000000072
 30
0.0
 11
263.988293399999975
 21
79.5644300000000015
 31
0.0
  0
LINE
  5
534
100
AcDbEntity
  8
0
 62
256
370
-1
 48
1.0
  6
BYLAYER
100
AcDbLine
 10
263.988293399999975
 20
79.5644300000000015
 30
0.0
 11
264.7872933999999532
 21
79.5644300000000015
 31
0.0
  0
LINE
  5
535
100
AcDbEntity
  8
0
 62
256
370
-1
 48
1.0
  6
BYLAYER
100
AcDbLine
 10
264.7872933999999532
 20
79.5644300000000015
 30
0.0
 11
264.7872933999999532
 21
82.6650300000000016
 31
0.0
  0
LINE
  5
536
100
AcDbEntity
  8
0
 62
256
370
-1
 48
1.0
  6
BYLAYER
100
AcDbLine
 10
264.7872933999999532
 20
82.6650300000000016
 30
0.0
 11
263.988293399999975
 21
82.6650300000000016
 31
0.0
  0
LINE
  5
537
100
AcDbEntity
  8
0
 62
256
370
-1
 48
1.0
  6
BYLAYER
100
AcDbLine
 10
263.988293399999975
 20
82.6650300000000016
 30
0.0
 11
263.988293399999975
 21
88.4650299999999987
 31
0.0
  0
LINE
  5
538
100
AcDbEntity
  8
0
 62
256
370
-1
 48
1.0
  6
BYLAYER
100
AcDbLine
 10
263.988293399999975
 20
88.4650299999999987
 30
0.0
 11
264.7872933999999532
 21
88.4650299999999987
 31
0.0
  0
LINE
  5
539
100
AcDbEntity
  8
0
 62
256
370
-1
 48
1.0
  6
BYLAYER
100
AcDbLine
 10
264.7872933999999532
 20
88.4650299999999987
 30
0.0
 11
264.7872933999999532
 21
91.5641300000000058
 31
0.0
  0
LINE
  5
53A
100
AcDbEntity
  8
0
 62
256
370
-1
 48
1.0
  6
BYLAYER
100
AcDbLine
 10
264.7872933999999532
 20
91.5641300000000058
 30
0.0
 11
263.988293399999975
 21
91.5641300000000058
 31
0.0
  0
LINE
  5
53B
100
AcDbEntity
  8
0
 62
256
370
-1
 48
1.0
  6
BYLAYER
100
AcDbLine
 10
263.988293399999975
 20
91.5641300000000058
 30
0.0
 11
263.988293399999975
 21
92.5646300000000082
 31
0.0
  0
LINE
  5
53C
100
AcDbEntity
  8
0
 62
256
370
-1
 48
1.0
  6
BYLAYER
100
AcDbLine
 10
263.988293399999975
 20
92.5646300000000082
 30
0.0
 11
249.9872933999999987
 21
92.5646300000000082
 31
0.0
  0
LINE
  5
53D
100
AcDbEntity
  8
0
 62
256
370
-1
 48
1.0
  6
BYLAYER
100
AcDbLine
 10
269.0372933999999532
 20
92.5646300000000082
 30
0.0
 11
269.0372933999999532
 21
91.5641300000000058
 31
0.0
  0
LINE
  5
53E
100
AcDbEntity
  8
0
 62
256
370
-1
 48
1.0
  6
BYLAYER
100
AcDbLine
 10
269.0372933999999532
 20
91.5641300000000058
 30
0.0
 11
268.238293399999975
 21
91.5641300000000058
 31
0.0
  0
LINE
  5
53F
100
AcDbEntity
  8
0
 62
256
370
-1
 48
1.0
  6
BYLAYER
100
AcDbLine
 10
268.238293399999975
 20
91.5641300000000058
 30
0.0
 11
268.238293399999975
 21
88.4650299999999987
 31
0.0
  0
LINE
  5
540
100
AcDbEntity
  8
0
 62
256
370
-1
 48
1.0
  6
BYLAYER
100
AcDbLine
 10
268.238293399999975
 20
88.4650299999999987
 30
0.0
 11
269.0372933999999532
 21
88.4650299999999987
 31
0.0
  0
LINE
  5
541
100
AcDbEntity
  8
0
 62
256
370
-1
 48
1.0
  6
BYLAYER
100
AcDbLine
 10
269.0372933999999532
 20
88.4650299999999987
 30
0.0
 11
269.0372933999999532
 21
82.6650300000000016
 31
0.0
  0
LINE
  5
542
100
AcDbEntity
  8
0
 62
256
370
-1
 48
1.0
  6
BYLAYER
100
AcDbLine
 10
269.0372933999999532
 20
82.6650300000000016
 30
0.0
 11
268.238293399999975
 21
82.6650300000000016
 31
0.0
  0
LINE
  5
543
100
AcDbEntity
  8
0
 62
256
370
-1
 48
1.0
  6
BYLAYER
100
AcDbLine
 10
268.238293399999975
 20
82.6650300000000016
 30
0.0
 11
268.238293399999975
 21
79.5644300000000015
 31
0.0
  0
LINE
  5
544
100
AcDbEntity
  8
0
 62
256
370
-1
 48
1.0
  6
BYLAYER
100
AcDbLine
 10
268.238293399999975
 20
79.5644300000000015
 30
0.0
 11
269.0372933999999532
 21
79.5644300000000015
 31
0.0
  0
LINE
  5
545
100
AcDbEntity
  8
0
 62
256
370
-1
 48
1.0
  6
BYLAYER
100
AcDbLine
 10
269.0372933999999532
 20
79.5644300000000015
 30
0.0
 11
269.0372933999999532
 21
78.5650300000000072
 31
0.0
  0
LINE
  5
546
100
AcDbEntity
  8
0
 62
256
370
-1
 48
1.0
  6
BYLAYER
100
AcDbLine
 10
269.0372933999999532
 20
78.5650300000000072
 30
0.0
 11
283.0382934000000432
 21
78.5650300000000072
 31
0.0
  0
LINE
  5
547
100
AcDbEntity
  8
0
 62
256
370
-1
 48
1.0
  6
BYLAYER
100
AcDbLine
 10
283.0382934000000432
 20
78.5650300000000072
 30
0.0
 11
283.0382934000000432
 21
79.5644300000000015
 31
0.0
  0
LINE
  5
548
100
AcDbEntity
  8
0
 62
256
370
-1
 48
1.0
  6
BYLAYER
100
AcDbLine
 10
283.0382934000000432
 20
79.5644300000000015
 30
0.0
 11
283.8372934000000214
 21
79.5644300000000015
 31
0.0
  0
LINE
  5
549
100
AcDbEntity
  8
0
 62
256
370
-1
 48
1.0
  6
BYLAYER
100
AcDbLine
 10
283.8372934000000214
 20
79.5644300000000015
 30
0.0
 11
283.8372934000000214
 21
82.6650300000000016
 31
0.0
  0
LINE
  5
54A
100
AcDbEntity
  8
0
 62
256
370
-1
 48
1.0
  6
BYLAYER
100
AcDbLine
 10
283.8372934000000214
 20
82.6650300000000016
 30
0.0
 11
283.0382934000000432
 21
82.6650300000000016
 31
0.0
  0
LINE
  5
54B
100
AcDbEntity
  8
0
 62
256
370
-1
 48
1.0
  6
BYLAYER
100
AcDbLine
 10
283.0382934000000432
 20
82.6650300000000016
 30
0.0
 11
283.0382934000000432
 21
88.4650299999999987
 31
0.0
  0
LINE
  5
54C
100
AcDbEntity
  8
0
 62
256
370
-1
 48
1.0
  6
BYLAYER
100
AcDbLine
 10
283.0382934000000432
 20
88.4650299999999987
 30
0.0
 11
283.8372934000000214
 21
88.4650299999999987
 31
0.0
  0
LINE
  5
54D
100
AcDbEntity
  8
0
 62
256
370
-1
 48
1.0
  6
BYLAYER
100
AcDbLine
 10
283.8372934000000214
 20
88.4650299999999987
 30
0.0
 11
283.8372934000000214
 21
91.5641300000000058
 31
0.0
  0
LINE
  5
54E
100
AcDbEntity
  8
0
 62
256
370
-1
 48
1.0
  6
BYLAYER
100
AcDbLine
 10
283.8372934000000214
 20
91.5641300000000058
 30
0.0
 11
283.0382934000000432
 21
91.5641300000000058
 31
0.0
  0
LINE
  5
54F
100
AcDbEntity
  8
0
 62
256
370
-1
 48
1.0
  6
BYLAYER
100
AcDbLine
 10
283.0382934000000432
 20
91.5641300000000058
 30
0.0
 11
283.0382934000000432
 21
92.5646300000000082
 31
0.0
  0
LINE
  5
550
100
AcDbEntity
  8
0
 62
256
370
-1
 48
1.0
  6
BYLAYER
100
AcDbLine
 10
283.0382934000000432
 20
92.5646300000000082
 30
0.0
 11
269.0372933999999532
 21
92.5646300000000082
 31
0.0
  0
ARC
  5
551
100
AcDbEntity
  8
0
 62
256
370
-1
 48
1.0
  6
BYLAYER
100
AcDbCircle
 10
2.0013777499730452
 20
92.9279300539052286
 30
0.0
 40
2.0
100
AcDbArc
 50
90.013302646955367
 51
180.0286494352178295
  0
ARC
  5
552
100
AcDbEntity
  8
0
 62
256
370
-1
 48
1.0
  6
BYLAYER
100
AcDbCircle
 10
283.3762934399500182
 20
92.926530249980047
 30
0.0
 40
2.0
100
AcDbArc
 50
0.0114519945385774
 51
89.9713532535340903
  0
ARC
  5
553
100
AcDbEntity
  8
0
 62
256
370
-1
 48
1.0
  6
BYLAYER
100
AcDbCircle
 10
283.3762942542848577
 20
2.0018485504269563
 30
0.0
 40
2.0
100
AcDbArc
 50
270.0286234174882907
 51
359.9470429236211544
  0
ARC
  5
554
100
AcDbEntity
  8
0
 62
256
370
-1
 48
1.0
  6
BYLAYER
100
AcDbCircle
 10
1.9999997941977483
 20
1.9990926913311
 30
0.0
 40
2.0
100
AcDbArc
 50
179.9740075203917229
 51
270.0261728792145277
  0
ARC
  5
555
100
AcDbEntity
  8
0
 62
256
370
-1
 48
1.0
  6
BYLAYER
100
AcDbCircle
 10
281.8767437081233993
 20
38.2636800000000079
 30
0.0
 40
2.5004504206029945
100
AcDbArc
 50
90.0332326281832138
 51
269.9667673718155356
  0
LINE
  5
556
100
AcDbEntity
  8
0
 62
256
370
-1
 48
1.0
  6
BYLAYER
100
AcDbLine
 10
129.858293400000008
 20
49.4873299999999858
 30
0.0
 11
130.92629340000002
 21
49.4873299999999858
 31
0.0
  0
LINE
  5
557
100
AcDbEntity
  8
0
 62
256
370
-1
 48
1.0
  6
BYLAYER
100
AcDbLine
 10
130.92629340000002
 20
49.4873299999999858
 30
0.0
 11
130.92629340000002
 21
50.3650300000000186
 31
0.0
  0
LINE
  5
558
100
AcDbEntity
  8
0
 62
256
370
-1
 48
1.0
  6
BYLAYER
100
AcDbLine
 10
126.920293399999963
 20
49.4873299999999716
 30
0.0
 11
125.8772934000000134
 21
49.4873299999999716
 31
0.0
  0
LINE
  5
559
100
AcDbEntity
  8
0
 62
256
370
-1
 48
1.0
  6
BYLAYER
100
AcDbLine
 10
125.8772934000000134
 20
49.4873299999999716
 30
0.0
 11
125.8772934000000134
 21
50.3650300000000044
 31
0.0
  0
LINE
  5
55A
100
AcDbEntity
  8
0
 62
256
370
-1
 48
1.0
  6
BYLAYER
100
AcDbLine
 10
129.858293400000008
 20
45.4413299999999936
 30
0.0
 11
130.92629340000002
 21
45.4413299999999936
 31
0.0
  0
LINE
  5
55B
100
AcDbEntity
  8
0
 62
256
370
-1
 48
1.0
  6
BYLAYER
100
AcDbLine
 10
23.4830934000000013
 20
54.4632299999999958
 30
0.0
 11
23.4830934000000013
 21
53.4641299999999831
 31
0.0
  0
LINE
  5
55C
100
AcDbEntity
  8
0
 62
256
370
-1
 48
1.0
  6
BYLAYER
100
AcDbLine
 10
130.92629340000002
 20
45.4413299999999936
 30
0.0
 11
130.92629340000002
 21
44.5636300000000034
 31
0.0
  0
LINE
  5
55D
100
AcDbEntity
  8
0
 62
256
370
-1
 48
1.0
  6
BYLAYER
100
AcDbLine
 10
23.4830934000000013
 20
53.4641299999999831
 30
0.0
 11
24.2823934000000179
 21
53.4641299999999831
 31
0.0
  0
LINE
  5
55E
100
AcDbEntity
  8
0
 62
256
370
-1
 48
1.0
  6
BYLAYER
100
AcDbLine
 10
126.9202934000000482
 20
45.441330000000022
 30
0.0
 11
125.8772934000000134
 21
45.441330000000022
 31
0.0
  0
LINE
  5
55F
100
AcDbEntity
  8
0
 62
256
370
-1
 48
1.0
  6
BYLAYER
100
AcDbLine
 10
24.2823934000000179
 20
53.4641299999999831
 30
0.0
 11
24.2823934000000179
 21
50.365029999999976
 31
0.0
  0
LINE
  5
560
100
AcDbEntity
  8
0
 62
256
370
-1
 48
1.0
  6
BYLAYER
100
AcDbLine
 10
125.8772934000000134
 20
45.441330000000022
 30
0.0
 11
125.8772934000000134
 21
44.5636300000000034
 31
0.0
  0
LINE
  5
561
100
AcDbEntity
  8
0
 62
256
370
-1
 48
1.0
  6
BYLAYER
100
AcDbLine
 10
24.2823934000000179
 20
50.365029999999976
 30
0.0
 11
23.4830934000000013
 21
50.3650299999999902
 31
0.0
  0
ARC
  5
562
100
AcDbEntity
  8
0
 62
256
370
-1
 48
1.0
  6
BYLAYER
100
AcDbCircle
 10
128.3892934000000139
 20
47.4543481397305413
 30
0.0
 40
2.5081818602694308
100
AcDbArc
 50
54.1487297492884636
 51
125.8512702507127869
  0
LINE
  5
563
100
AcDbEntity
  8
0
 62
256
370
-1
 48
1.0
  6
BYLAYER
100
AcDbLine
 10
23.4830934000000013
 20
50.3650299999999902
 30
0.0
 11
23.4830934000000013
 21
44.5636299999999892
 31
0.0
  0
ARC
  5
564
100
AcDbEntity
  8
0
 62
256
370
-1
 48
1.0
  6
BYLAYER
100
AcDbCircle
 10
128.3892933999999855
 20
47.4575240217391467
 30
0.0
 40
2.4945940217391422
100
AcDbArc
 50
233.9228998523939254
 51
306.0771001476060746
  0
LINE
  5
565
100
AcDbEntity
  8
0
 62
256
370
-1
 48
1.0
  6
BYLAYER
100
AcDbLine
 10
23.4830934000000013
 20
44.5636299999999892
 30
0.0
 11
24.2823934000000179
 21
44.5636299999999892
 31
0.0
  0
CIRCLE
  5
566
100
AcDbEntity
  8
0
 62
256
370
-1
 48
1.0
  6
BYLAYER
100
AcDbCircle
 10
260.238293399999975
 20
66.8630300000000801
 30
0.0
 40
2.5
  0
LINE
  5
567
100
AcDbEntity
  8
0
 62
256
370
-1
 48
1.0
  6
BYLAYER
100
AcDbLine
 10
24.2823934000000179
 20
44.5636299999999892
 30
0.0
 11
24.2823934000000179
 21
41.464429999999993
 31
0.0
  0
CIRCLE
  5
568
100
AcDbEntity
  8
0
 62
256
370
-1
 48
1.0
  6
BYLAYER
100
AcDbCircle
 10
25.3889934000000324
 20
66.8635300000000115
 30
0.0
 40
2.4997000500059761
  0
LINE
  5
569
100
AcDbEntity
  8
0
 62
256
370
-1
 48
1.0
  6
BYLAYER
100
AcDbLine
 10
24.2823934000000179
 20
41.464429999999993
 30
0.0
 11
23.4830934000000013
 21
41.464429999999993
 31
0.0
  0
LINE
  5
56A
100
AcDbEntity
  8
0
 62
256
370
-1
 48
1.0
  6
BYLAYER
100
AcDbLine
 10
13.4440934000000141
 20
31.3150300000000072
 30
0.0
 11
12.6696933999999999
 21
31.3150300000000072
 31
0.0
  0
LINE
  5
56B
100
AcDbEntity
  8
0
 62
256
370
-1
 48
1.0
  6
BYLAYER
100
AcDbLine
 10
23.4830934000000013
 20
41.464429999999993
 30
0.0
 11
23.4830934000000013
 21
40.4639300000000048
 31
0.0
  0
LINE
  5
56C
100
AcDbEntity
  8
0
 62
256
370
-1
 48
1.0
  6
BYLAYER
100
AcDbLine
 10
12.6696933999999999
 20
31.3150300000000072
 30
0.0
 11
12.6696933999999999
 21
33.9443299999999937
 31
0.0
  0
LINE
  5
56D
100
AcDbEntity
  8
0
 62
256
370
-1
 48
1.0
  6
BYLAYER
100
AcDbLine
 10
13.4440934000000141
 20
25.5135300000000029
 30
0.0
 11
12.6696933999999999
 21
25.5135300000000029
 31
0.0
  0
LINE
  5
56E
100
AcDbEntity
  8
0
 62
256
370
-1
 48
1.0
  6
BYLAYER
100
AcDbLine
 10
12.6696933999999999
 20
25.5135300000000029
 30
0.0
 11
12.6696933999999999
 21
21.6453300000000013
 31
0.0
  0
LINE
  5
56F
100
AcDbEntity
  8
0
 62
256
370
-1
 48
1.0
  6
BYLAYER
100
AcDbLine
 10
29.043593400000006
 20
25.5135300000000029
 30
0.0
 11
29.8193934000000098
 21
25.5135300000000029
 31
0.0
  0
LINE
  5
570
100
AcDbEntity
  8
0
 62
256
370
-1
 48
1.0
  6
BYLAYER
100
AcDbLine
 10
29.8193934000000098
 20
25.5135300000000029
 30
0.0
 11
29.8193934000000098
 21
21.6453300000000013
 31
0.0
  0
LINE
  5
571
100
AcDbEntity
  8
0
 62
256
370
-1
 48
1.0
  6
BYLAYER
100
AcDbLine
 10
29.043593400000006
 20
31.3150300000000072
 30
0.0
 11
29.8193934000000098
 21
31.3150300000000072
 31
0.0
  0
LINE
  5
572
100
AcDbEntity
  8
0
 62
256
370
-1
 48
1.0
  6
BYLAYER
100
AcDbLine
 10
29.8193934000000098
 20
31.3150300000000072
 30
0.0
 11
29.8193934000000098
 21
33.9443300000000079
 31
0.0
  0
CIRCLE
  5
573
100
AcDbEntity
  8
0
 62
256
370
-1
 48
1.0
  6
BYLAYER
100
AcDbCircle
 10
190.6892934000000253
 20
9.5640500000000372
 30
0.0
 40
2.4989999999999952
  0
LINE
  5
574
100
AcDbEntity
  8
0
 62
256
370
-1
 48
1.0
  6
BYLAYER
100
AcDbLine
 10
4.7197734000000366
 20
54.46323000000001
 30
0.0
 11
23.4830934000000013
 21
54.4632299999999958
 31
0.0
  0
LINE
  5
575
100
AcDbEntity
  8
0
 62
256
370
-1
 48
1.0
  6
BYLAYER
100
AcDbLine
 10
0.0
 20
35.763229999999993
 30
0.0
 11
2.0
 21
35.763229999999993
 31
0.0
  0
LINE
  5
576
100
AcDbEntity
  8
0
 62
256
370
-1
 48
1.0
  6
BYLAYER
100
AcDbLine
 10
0.0
 20
40.7641299999999944
 30
0.0
 11
2.0
 21
40.7641299999999944
 31
0.0
  0
ARC
  5
577
100
AcDbEntity
  8
0
 62
256
370
-1
 48
1.0
  6
BYLAYER
100
AcDbCircle
 10
2.0
 20
38.2632299999999788
 30
0.0
 40
2.5
100
AcDbArc
 50
270.0
 51
90.0
  0
LINE
  5
578
100
AcDbEntity
  8
0
 62
256
370
-1
 48
1.0
  6
BYLAYER
100
AcDbLine
 10
4.7197734000000366
 20
41.4644300000000072
 30
0.0
 11
4.7197734000000366
 21
40.4639300000000048
 31
0.0
  0
LINE
  5
579
100
AcDbEntity
  8
0
 62
256
370
-1
 48
1.0
  6
BYLAYER
100
AcDbLine
 10
4.7197734000000366
 20
40.4639300000000048
 30
0.0
 11
23.4830934000000013
 21
40.4639300000000048
 31
0.0
  0
LINE
  5
57A
100
AcDbEntity
  8
0
 62
256
370
-1
 48
1.0
  6
BYLAYER
100
AcDbLine
 10
135.6882934000000489
 20
11.6641300000000001
 30
0.0
 11
89.0390933999999845
 21
11.6641300000000001
 31
0.0
  0
LINE
  5
57B
100
AcDbEntity
  8
0
 62
256
370
-1
 48
1.0
  6
BYLAYER
100
AcDbLine
 10
89.0390933999999845
 20
7.0643000000000029
 30
0.0
 11
135.6882934000000489
 21
7.0643000000000029
 31
0.0
  0
ENDSEC
  0
SECTION
  2
OBJECTS
  0
DICTIONARY
  5
C
100
AcDbDictionary
280
0
281
1
  3
ACAD_GROUP
350
D
  3
ACAD_LAYOUT
350
1A
  3
ACAD_MLINESTYLE
350
17
  3
ACAD_PLOTSETTINGS
350
19
  3
ACAD_PLOTSTYLENAME
350
E
  3
AcDbVariableDictionary
350
57C
  3
QCAD_OBJECTS
350
57D
  0
DICTIONARY
  5
D
100
AcDbDictionary
280
0
281
1
  0
ACDBDICTIONARYWDFLT
  5
E
100
AcDbDictionary
281
1
  3
Normal
350
F
100
AcDbDictionaryWithDefault
340
F
  0
ACDBPLACEHOLDER
  5
F
  0
DICTIONARY
  5
17
100
AcDbDictionary
280
0
281
1
  3
Standard
350
18
  0
MLINESTYLE
  5
18
100
AcDbMlineStyle
  2
STANDARD
 70
0
  3

 62
256
 51
90.0
 52
90.0
 71
2
 49
0.5
 62
256
  6
BYLAYER
 49
-0.5
 62
256
  6
BYLAYER
  0
DICTIONARY
  5
19
100
AcDbDictionary
280
0
281
1
  0
DICTIONARY
  5
1A
100
AcDbDictionary
281
1
  3
Layout1
350
1E
  3
Layout2
350
26
  3
Model
350
22
  0
LAYOUT
  5
1E
100
AcDbPlotSettings
  1

  2
none_device
  4

  6

 40
0.0
 41
0.0
 42
0.0
 43
0.0
 44
0.0
 45
0.0
 46
0.0
 47
0.0
 48
0.0
 49
0.0
140
0.0
141
0.0
142
1.0
143
1.0
 70
688
 72
0
 73
0
 74
5
  7

 75
16
147
1.0
148
0.0
149
0.0
100
AcDbLayout
  1
Layout1
 70
1
 71
1
 10
0.0
 20
0.0
 11
420.0
 21
297.0
 12
0.0
 22
0.0
 32
0.0
 14
100000000000000000000.0
 24
100000000000000000000.0
 34
100000000000000000000.0
 15
-100000000000000000000.0
 25
-100000000000000000000.0
 35
-100000000000000000000.0
146
0.0
 13
0.0
 23
0.0
 33
0.0
 16
1.0
 26
0.0
 36
0.0
 17
0.0
 27
1.0
 37
0.0
 76
0
330
1B
  0
LAYOUT
  5
22
100
AcDbPlotSettings
  1

  2
none_device
  4

  6

 40
0.0
 41
0.0
 42
0.0
 43
0.0
 44
0.0
 45
0.0
 46
0.0
 47
0.0
 48
0.0
 49
0.0
140
0.0
141
0.0
142
1.0
143
1.0
 70
1712
 72
0
 73
0
 74
0
  7

 75
0
147
1.0
148
0.0
149
0.0
100
AcDbLayout
  1
Model
 70
1
 71
0
 10
0.0
 20
0.0
 11
12.0
 21
9.0
 12
0.0
 22
0.0
 32
0.0
 14
0.0
 24
0.0
 34
0.0
 15
0.0
 25
0.0
 35
0.0
146
0.0
 13
0.0
 23
0.0
 33
0.0
 16
1.0
 26
0.0
 36
0.0
 17
0.0
 27
1.0
 37
0.0
 76
0
330
1F
  0
LAYOUT
  5
26
100
AcDbPlotSettings
  1

  2
none_device
  4

  6

 40
0.0
 41
0.0
 42
0.0
 43
0.0
 44
0.0
 45
0.0
 46
0.0
 47
0.0
 48
0.0
 49
0.0
140
0.0
141
0.0
142
1.0
143
1.0
 70
688
 72
0
 73
0
 74
5
  7

 75
16
147
1.0
148
0.0
149
0.0
100
AcDbLayout
  1
Layout2
 70
1
 71
2
 10
0.0
 20
0.0
 11
12.0
 21
9.0
 12
0.0
 22
0.0
 32
0.0
 14
0.0
 24
0.0
 34
0.0
 15
0.0
 25
0.0
 35
0.0
146
0.0
 13
0.0
 23
0.0
 33
0.0
 16
1.0
 26
0.0
 36
0.0
 17
0.0
 27
1.0
 37
0.0
 76
0
330
23
  0
DICTIONARY
  5
57C
100
AcDbDictionary
281
1
  3
DIMASSOC
350
57F
  3
HIDETEXT
350
57E
  0
DICTIONARYVAR
  5
57E
100
DictionaryVariables
280
0
  1
2
  0
DICTIONARYVAR
  5
57F
100
DictionaryVariables
280
0
  1
1
  0
DICTIONARY
  5
57D
100
AcDbDictionary
281
1
  3
ColorSettings/BackgroundColor
350
580
  3
ColorSettings/ColorMode
350
581
  3
Grid/DisplayGrid00
350
582
  3
Grid/DisplayGrid01
350
583
  3
Grid/DisplayGrid02
350
584
  3
Grid/DisplayGrid03
350
585
  3
Grid/GridSpacingX00
350
586
  3
Grid/GridSpacingX01
350
587
  3
Grid/GridSpacingX02
350
588
  3
Grid/GridSpacingX03
350
589
  3
Grid/GridSpacingY00
350
58A
  3
Grid/GridSpacingY01
350
58B
  3
Grid/GridSpacingY02
350
58C
  3
Grid/GridSpacingY03
350
58D
  3
Grid/IsometricGrid00
350
58E
  3
Grid/IsometricGrid01
350
58F
  3
Grid/IsometricGrid02
350
590
  3
Grid/IsometricGrid03
350
591
  3
Grid/IsometricProjection00
350
592
  3
Grid/IsometricProjection01
350
593
  3
Grid/IsometricProjection02
350
594
  3
Grid/IsometricProjection03
350
595
  3
Grid/MetaGridSpacingX00
350
596
  3
Grid/MetaGridSpacingX01
350
597
  3
Grid/MetaGridSpacingX02
350
598
  3
Grid/MetaGridSpacingX03
350
599
  3
Grid/MetaGridSpacingY00
350
59A
  3
Grid/MetaGridSpacingY01
350
59B
  3
Grid/MetaGridSpacingY02
350
59C
  3
Grid/MetaGridSpacingY03
350
59D
  3
MultiPageSettings/Columns
350
59E
  3
MultiPageSettings/GlueMarginsBottom
350
59F
  3
MultiPageSettings/GlueMarginsLeft
350
5A0
  3
MultiPageSettings/GlueMarginsRight
350
5A1
  3
MultiPageSettings/GlueMarginsTop
350
5A2
  3
MultiPageSettings/PrintCropMarks
350
5A3
  3
MultiPageSettings/Rows
350
5A4
  3
PageSettings/OffsetX
350
5A5
  3
PageSettings/OffsetY
350
5A6
  3
PageSettings/PageOrientation
350
5A7
  3
PageSettings/PaperHeight
350
5A8
  3
PageSettings/PaperWidth
350
5A9
  3
PageSettings/Scale
350
5AA
  3
PageSettings/ShowPaperBorders
350
5AB
  3
QCADVersion
350
5AC
  3
UnitSettings/PaperUnit
350
5AD
  3
ViewportCenter
350
5AE
  3
ViewportHeight
350
5AF
  3
ViewportWidth
350
5B0
  0
XRECORD
  5
580
330
57D
100
AcDbXrecord
280
1
1000
Blanc
  0
XRECORD
  5
581
330
57D
100
AcDbXrecord
280
1
1000
FullColor
  0
XRECORD
  5
582
330
57D
100
AcDbXrecord
280
1
290
1
  0
XRECORD
  5
583
330
57D
100
AcDbXrecord
280
1
290
1
  0
XRECORD
  5
584
330
57D
100
AcDbXrecord
280
1
290
1
  0
XRECORD
  5
585
330
57D
100
AcDbXrecord
280
1
290
1
  0
XRECORD
  5
586
330
57D
100
AcDbXrecord
280
1
1000
auto
  0
XRECORD
  5
587
330
57D
100
AcDbXrecord
280
1
1000
auto
  0
XRECORD
  5
588
330
57D
100
AcDbXrecord
280
1
1000
auto
  0
XRECORD
  5
589
330
57D
100
AcDbXrecord
280
1
1000
auto
  0
XRECORD
  5
58A
330
57D
100
AcDbXrecord
280
1
1000
auto
  0
XRECORD
  5
58B
330
57D
100
AcDbXrecord
280
1
1000
auto
  0
XRECORD
  5
58C
330
57D
100
AcDbXrecord
280
1
1000
auto
  0
XRECORD
  5
58D
330
57D
100
AcDbXrecord
280
1
1000
auto
  0
XRECORD
  5
58E
330
57D
100
AcDbXrecord
280
1
290
0
  0
XRECORD
  5
58F
330
57D
100
AcDbXrecord
280
1
290
0
  0
XRECORD
  5
590
330
57D
100
AcDbXrecord
280
1
290
0
  0
XRECORD
  5
591
330
57D
100
AcDbXrecord
280
1
290
0
  0
XRECORD
  5
592
330
57D
100
AcDbXrecord
280
1
 90
4097
  0
XRECORD
  5
593
330
57D
100
AcDbXrecord
280
1
 90
4097
  0
XRECORD
  5
594
330
57D
100
AcDbXrecord
280
1
 90
4097
  0
XRECORD
  5
595
330
57D
100
AcDbXrecord
280
1
 90
4097
  0
XRECORD
  5
596
330
57D
100
AcDbXrecord
280
1
1000
auto
  0
XRECORD
  5
597
330
57D
100
AcDbXrecord
280
1
1000
auto
  0
XRECORD
  5
598
330
57D
100
AcDbXrecord
280
1
1000
auto
  0
XRECORD
  5
599
330
57D
100
AcDbXrecord
280
1
1000
auto
  0
XRECORD
  5
59A
330
57D
100
AcDbXrecord
280
1
1000
auto
  0
XRECORD
  5
59B
330
57D
100
AcDbXrecord
280
1
1000
auto
  0
XRECORD
  5
59C
330
57D
100
AcDbXrecord
280
1
1000
auto
  0
XRECORD
  5
59D
330
57D
100
AcDbXrecord
280
1
1000
auto
  0
XRECORD
  5
59E
330
57D
100
AcDbXrecord
280
1
 90
1
  0
XRECORD
  5
59F
330
57D
100
AcDbXrecord
280
1
 40
10.0
  0
XRECORD
  5
5A0
330
57D
100
AcDbXrecord
280
1
 40
10.0
  0
XRECORD
  5
5A1
330
57D
100
AcDbXrecord
280
1
 40
10.0
  0
XRECORD
  5
5A2
330
57D
100
AcDbXrecord
280
1
 40
10.0
  0
XRECORD
  5
5A3
330
57D
100
AcDbXrecord
280
1
290
0
  0
XRECORD
  5
5A4
330
57D
100
AcDbXrecord
280
1
 90
1
  0
XRECORD
  5
5A5
330
57D
100
AcDbXrecord
280
1
 40
0.0
  0
XRECORD
  5
5A6
330
57D
100
AcDbXrecord
280
1
 40
0.0
  0
XRECORD
  5
5A7
330
57D
100
AcDbXrecord
280
1
1000
Portrait
  0
XRECORD
  5
5A8
330
57D
100
AcDbXrecord
280
1
 40
297.0
  0
XRECORD
  5
5A9
330
57D
100
AcDbXrecord
280
1
 40
210.0
  0
XRECORD
  5
5AA
330
57D
100
AcDbXrecord
280
1
1000
1:1
  0
XRECORD
  5
5AB
330
57D
100
AcDbXrecord
280
1
290
1
  0
XRECORD
  5
5AC
330
57D
100
AcDbXrecord
280
1
1000
3.16.7
  0
XRECORD
  5
5AD
330
57D
100
AcDbXrecord
280
1
 90
4
  0
XRECORD
  5
5AF
330
57D
100
AcDbXrecord
280
1
 40
150.0692420215243033
  0
XRECORD
  5
5B0
330
57D
100
AcDbXrecord
280
1
 40
302.1174191026731251
  0
ENDSEC
  0
EOF
